  0
SECTION
  2
HEADER
  9
$ACADVER
  1
AC1015
  9
$ACADMAINTVER
 70
     6
  9
$DWGCODEPAGE
  3
ANSI_932
  9
$INSBASE
 10
0.0
 20
0.0
 30
0.0
  9
$EXTMIN
 10
14.500235
 20
48.97031
 30
1.000000E+20
  9
$EXTMAX
 10
181.156901
 20
222.153882
 30
-1.000000E+20
  9
$LIMMIN
 10
14.500235
 20
48.97031
  9
$LIMMAX
 10
181.156901
 20
222.153882
  9
$ORTHOMODE
 70
     0
  9
$REGENMODE
 70
     1
  9
$FILLMODE
 70
     1
  9
$QTEXTMODE
 70
     0
  9
$MIRRTEXT
 70
     1
  9
$LTSCALE
 40
1.0
  9
$ATTMODE
 70
     1
  9
$TEXTSIZE
 40
0.2
  9
$TRACEWID
 40
0.05
  9
$TEXTSTYLE
  7
Standard
  9
$CLAYER
  8
0
  9
$CELTYPE
  6
Continuous
  9
$CECOLOR
 62
   256
  9
$CELTSCALE
 40
1.0
  9
$DISPSILH
 70
     0
  9
$DIMSCALE
 40
1.0
  9
$DIMASZ
 40
0.18
  9
$DIMEXO
 40
0.0625
  9
$DIMDLI
 40
0.38
  9
$DIMRND
 40
0.0
  9
$DIMDLE
 40
0.0
  9
$DIMEXE
 40
0.18
  9
$DIMTP
 40
0.0
  9
$DIMTM
 40
0.0
  9
$DIMTXT
 40
0.18
  9
$DIMCEN
 40
0.09
  9
$DIMTSZ
 40
0.0
  9
$DIMTOL
 70
     0
  9
$DIMLIM
 70
     0
  9
$DIMTIH
 70
     1
  9
$DIMTOH
 70
     1
  9
$DIMSE1
 70
     0
  9
$DIMSE2
 70
     0
  9
$DIMTAD
 70
     0
  9
$DIMZIN
 70
     0
  9
$DIMBLK
  1

  9
$DIMASO
 70
     1
  9
$DIMSHO
 70
     1
  9
$DIMPOST
  1

  9
$DIMAPOST
  1

  9
$DIMALT
 70
     0
  9
$DIMALTD
 70
     2
  9
$DIMALTF
 40
25.4
  9
$DIMLFAC
 40
1.0
  9
$DIMTOFL
 70
     0
  9
$DIMTVP
 40
0.0
  9
$DIMTIX
 70
     0
  9
$DIMSOXD
 70
     0
  9
$DIMSAH
 70
     0
  9
$DIMBLK1
  1

  9
$DIMBLK2
  1

  9
$DIMSTYLE
  2
Standard
  9
$DIMCLRD
 70
     0
  9
$DIMCLRE
 70
     0
  9
$DIMCLRT
 70
     0
  9
$DIMTFAC
 40
1.0
  9
$DIMGAP
 40
0.09
  9
$DIMJUST
 70
     0
  9
$DIMSD1
 70
     0
  9
$DIMSD2
 70
     0
  9
$DIMTOLJ
 70
     1
  9
$DIMTZIN
 70
     0
  9
$DIMALTZ
 70
     0
  9
$DIMALTTZ
 70
     0
  9
$DIMUPT
 70
     0
  9
$DIMDEC
 70
     4
  9
$DIMTDEC
 70
     4
  9
$DIMALTU
 70
     2
  9
$DIMALTTD
 70
     2
  9
$DIMTXSTY
  7
Standard
  9
$DIMAUNIT
 70
     0
  9
$DIMADEC
 70
     0
  9
$DIMALTRND
 40
0.0
  9
$DIMAZIN
 70
     0
  9
$DIMDSEP
 70
     0
  9
$DIMATFIT
 70
     3
  9
$DIMFRAC
 70
     0
  9
$DIMLDRBLK
  1

  9
$DIMLUNIT
 70
     2
  9
$DIMLWD
 70
     0
  9
$DIMLWE
 70
     0
  9
$DIMTMOVE
 70
     0
  9
$LUNITS
 70
     2
  9
$LUPREC
 70
     4
  9
$SKETCHINC
 40
0.1
  9
$FILLETRAD
 40
0.0
  9
$AUNITS
 70
     0
  9
$AUPREC
 70
     0
  9
$MENU
  1
acad
  9
$ELEVATION
 40
0.0
  9
$PELEVATION
 40
0.0
  9
$THICKNESS
 40
0.0
  9
$LIMCHECK
 70
     0
  9
$CHAMFERA
 40
0.0
  9
$CHAMFERB
 40
0.0
  9
$CHAMFERC
 40
0.0
  9
$CHAMFERD
 40
0.0
  9
$SKPOLY
 70
     0
  9
$TDCREATE
 40
0.000000000
  9
$TDUCREATE
 40
0.000000000
  9
$TDUPDATE
 40
0.000000000
  9
$TDUUPDATE
 40
0.000000000
  9
$TDINDWG
 40
0.0000000000
  9
$TDUSRTIMER
 40
0.0000000000
  9
$USRTIMER
 70
     1
  9
$ANGBASE
 50
0.0
  9
$ANGDIR
 70
     0
  9
$PDMODE
 70
     0
  9
$PDSIZE
 40
0.0
  9
$PLINEWID
 40
0.0
  9
$SPLFRAME
 70
     0
  9
$SPLINETYPE
 70
     6
  9
$SPLINESEGS
 70
     8
  9
$HANDSEED
  5
18D
  9
$SURFTAB1
 70
     6
  9
$SURFTAB2
 70
     6
  9
$SURFTYPE
 70
     6
  9
$SURFU
 70
     6
  9
$SURFV
 70
     6
  9
$UCSBASE
  2

  9
$UCSNAME
  2

  9
$UCSORG
 10
0.0
 20
0.0
 30
0.0
  9
$UCSXDIR
 10
1.0
 20
0.0
 30
0.0
  9
$UCSYDIR
 10
0.0
 20
1.0
 30
0.0
  9
$UCSORTHOREF
  2

  9
$UCSORTHOVIEW
 70
     0
  9
$UCSORGTOP
 10
0.0
 20
0.0
 30
0.0
  9
$UCSORGBOTTOM
 10
0.0
 20
0.0
 30
0.0
  9
$UCSORGLEFT
 10
0.0
 20
0.0
 30
0.0
  9
$UCSORGRIGHT
 10
0.0
 20
0.0
 30
0.0
  9
$UCSORGFRONT
 10
0.0
 20
0.0
 30
0.0
  9
$UCSORGBACK
 10
0.0
 20
0.0
 30
0.0
  9
$PUCSBASE
  2

  9
$PUCSNAME
  2

  9
$PUCSORG
 10
0.0
 20
0.0
 30
0.0
  9
$PUCSXDIR
 10
1.0
 20
0.0
 30
0.0
  9
$PUCSYDIR
 10
0.0
 20
1.0
 30
0.0
  9
$PUCSORTHOREF
  2

  9
$PUCSORTHOVIEW
 70
     0
  9
$PUCSORGTOP
 10
0.0
 20
0.0
 30
0.0
  9
$PUCSORGBOTTOM
 10
0.0
 20
0.0
 30
0.0
  9
$PUCSORGLEFT
 10
0.0
 20
0.0
 30
0.0
  9
$PUCSORGRIGHT
 10
0.0
 20
0.0
 30
0.0
  9
$PUCSORGFRONT
 10
0.0
 20
0.0
 30
0.0
  9
$PUCSORGBACK
 10
0.0
 20
0.0
 30
0.0
  9
$USERI1
 70
     0
  9
$USERI2
 70
     0
  9
$USERI3
 70
     0
  9
$USERI4
 70
     0
  9
$USERI5
 70
     0
  9
$USERR1
 40
0.0
  9
$USERR2
 40
0.0
  9
$USERR3
 40
0.0
  9
$USERR4
 40
0.0
  9
$USERR5
 40
0.0
  9
$WORLDVIEW
 70
     1
  9
$SHADEDGE
 70
     3
  9
$SHADEDIF
 70
    70
  9
$TILEMODE
 70
     1
  9
$MAXACTVP
 70
    16
  9
$PINSBASE
 10
0.0
 20
0.0
 30
0.0
  9
$PLIMCHECK
 70
     0
  9
$PEXTMIN
 10
1.000000E+20
 20
1.000000E+20
 30
1.000000E+20
  9
$PEXTMAX
 10
-1.000000E+20
 20
-1.000000E+20
 30
-1.000000E+20
  9
$PLIMMIN
 10
0.0
 20
0.0
  9
$PLIMMAX
 10
12.0
 20
9.0
  9
$UNITMODE
 70
     0
  9
$VISRETAIN
 70
     0
  9
$PLINEGEN
 70
     1
  9
$PSLTSCALE
 70
     0
  9
$TREEDEPTH
 70
  3020
  9
$CMLSTYLE
  2
Standard
  9
$CMLJUST
 70
     0
  9
$CMLSCALE
 40
1.0
  9
$PROXYGRAPHICS
 70
     0
  9
$MEASUREMENT
 70
     1
  9
$CELWEIGHT
370
     0
  9
$ENDCAPS
280
     0
  9
$JOINSTYLE
280
     0
  9
$LWDISPLAY
290
     0
  9
$INSUNITS
 70
     0
  9
$HYPERLINKBASE
  1

  9
$STYLESHEET
  1

  9
$XEDIT
290
     1
  9
$CEPSNTYPE
380
     0
  9
$PSTYLEMODE
290
     1
  9
$FINGERPRINTGUID
  2

  9
$VERSIONGUID
  2

  9
$EXTNAMES
290
     1
  9
$PSVPSCALE
 40
0.0
  0
ENDSEC
  0
SECTION
  2
CLASSES
  0
CLASS
  1
LWPOLYLINE
  2
AcDbPolyline
  3
AutoCAD 2000
 90
    32768
280
     0
281
     1
  0
CLASS
  1
IMAGE
  2
AcDbRasterImage
  3
ISM
 90
    32895
280
     0
281
     1
  0
CLASS
  1
OLE2FRAME
  2
AcDbOle2Frame
  3
AutoCAD 2000
 90
    32768
280
     0
281
     1
  0
CLASS
  1
HATCH
  2
AcDbHatch
  3
AutoCAD 2000
 90
        0
280
     0
281
     1
  0
CLASS
  1
DICTIONARYVAR
  2
AcDbDictionaryVar
  3
AutoCAD 2000
 90
    32768
280
     0
281
     0
  0
CLASS
  1
RASTERVARIABLES
  2
AcDbRasterVariables
  3
ISM
 90
    32768
280
     0
281
     0
  0
CLASS
  1
IMAGEDEF
  2
AcDbRasterImageDef
  3
ISM
 90
    32768
280
     0
281
     0
  0
CLASS
  1
IMAGEDEF_REACTOR
  2
AcDbRasterImageDefReactor
  3
ISM
 90
    32769
280
     0
281
     0
  0
CLASS
  1
IDBUFFER
  2
AcDbIdBuffer
  3
AutoCAD 2000
 90
    32768
280
     0
281
     0
  0
CLASS
  1
SPATIAL_FILTER
  2
AcDbSpatialFilter
  3
AutoCAD 2000
 90
    32768
280
     0
281
     0
  0
CLASS
  1
XRECORD
  2
AcDbXrecord
  3
AutoCAD 2000
 90
    32768
280
     0
281
     0
  0
CLASS
  1
SORTENTSTABLE
  2
AcDbSortentsTable
  3
AutoCAD 2000
 90
    32768
280
     0
281
     0
  0
CLASS
  1
LAYER_INDEX
  2
AcDbLayerIndex
  3
AutoCAD 2000
 90
    32768
280
     0
281
     0
  0
CLASS
  1
SPATIAL_INDEX
  2
AcDbSpatialIndex
  3
AutoCAD 2000
 90
    32768
280
     0
281
     0
  0
CLASS
  1
OBJECT_PTR
  2
CAseDLPNTableRecord
  3
"ASE-LPNTableRecord"
 90
    32769
280
     0
281
     0
  0
CLASS
  1
LAYOUT
  2
AcDbLayout
  3
AutoCAD 2000
 90
        0
280
     0
281
     0
  0
CLASS
  1
PLOTSETTINGS
  2
AcDbPlotSettings
  3
AutoCAD 2000
 90
    32768
280
     0
281
     0
  0
CLASS
  1
ACDBDICTIONARYWDFLT
  2
AcDbDictionaryWithDefault
  3
AutoCAD 2000
 90
        0
280
     0
281
     0
  0
CLASS
  1
ACDBPLACEHOLDER
  2
AcDbPlaceHolder
  3
AutoCAD 2000
 90
        0
280
     0
281
     0
  0
CLASS
  1
VBA_PROJECT
  2
AcDbVbaProject
  3
acadvba
 90
    32768
280
     0
281
     0
  0
CLASS
  1
WIPEOUT
  2
AcDbWipeout
  3
WipeOut|AutoCAD Express Tool|expresstools@autodesk.com
 90
    32895
280
     0
281
     1
  0
CLASS
  1
WIPEOUTVARIABLES
  2
AcDbWipeoutVariables
  3
WipeOut|AutoCAD Express Tool|expresstools@autodesk.com
 90
        0
280
     0
281
     0
  0
CLASS
  1
RTEXT
  2
RText
  3
RText|AutoCAD Express Tool|expresstools@autodesk.com
 90
    32768
280
     0
281
     1
  0
CLASS
  1
ARCALIGNEDTEXT
  2
AcDbArcAlignedText
  3
ATEXT|AutoCAD Express Tool|expresstools@autodesk.com
 90
    32768
280
     0
281
     1
  0
ENDSEC
  0
SECTION
  2
TABLES
  0
TABLE
  2
VPORT
  5
7
100
AcDbSymbolTable
 70
     1
  0
VPORT
  5
15
100
AcDbSymbolTableRecord
100
AcDbViewportTableRecord
  2
*ACTIVE
 70
     0
 10
0.0
 20
0.0
 11
1.0
 21
1.0
 12
6.591288
 22
4.579184
 13
0.0
 23
0.0
 14
1.0
 24
1.0
 15
0.0
 25
0.0
 16
0.0
 26
0.0
 36
1.0
 17
0.0
 27
0.0
 37
0.0
 40
9.158369
 41
0.688564
 42
50.0
 43
0.0
 44
0.0
 50
0.0
 51
0.0
 71
     0
 72
   100
 73
     1
 74
     1
 75
     0
 76
     0
 77
     0
 78
     0
281
     0
 65
     0
110
0.0
120
0.0
130
0.0
111
1.0
121
0.0
131
0.0
112
0.0
122
1.0
132
0.0
345
0
346
0
 79
     0
146
0.0
  0
ENDTAB
  0
TABLE
  2
LTYPE
  5
4
100
AcDbSymbolTable
 70
     6
  0
LTYPE
  5
11
100
AcDbSymbolTableRecord
100
AcDbLinetypeTableRecord
  2
ByBlock
 70
    64
  3

 72
    65
 73
     0
 40
0.0
  0
LTYPE
  5
12
100
AcDbSymbolTableRecord
100
AcDbLinetypeTableRecord
  2
ByLayer
 70
    64
  3

 72
    65
 73
     0
 40
0.0
  0
LTYPE
  5
13
100
AcDbSymbolTableRecord
100
AcDbLinetypeTableRecord
  2
Continuous
 70
    64
  3
Solid line
 72
    65
 73
     0
 40
0.0
  0
LTYPE
  5
B3
100
AcDbSymbolTableRecord
100
AcDbLinetypeTableRecord
  2
AI9-LType1
 70
    64
  3
Illustrator Dash Style No.1
 72
    65
 73
     4
 40
8.819444
 49
5.644444
 74
     0
 49
-1.411111
 74
     0
 49
0.352778
 74
     0
 49
-1.411111
 74
     0
  0
LTYPE
  5
B5
100
AcDbSymbolTableRecord
100
AcDbLinetypeTableRecord
  2
AI9-LType2
 70
    64
  3
Illustrator Dash Style No.2
 72
    65
 73
     4
 40
5.997222
 49
3.527778
 74
     0
 49
-1.058333
 74
     0
 49
0.352778
 74
     0
 49
-1.058333
 74
     0
  0
LTYPE
  5
188
100
AcDbSymbolTableRecord
100
AcDbLinetypeTableRecord
  2
AI9-LType3
 70
    64
  3
Illustrator Dash Style No.3
 72
    65
 73
     5
 40
9.172222
 49
5.644444
 74
     0
 49
-1.411111
 74
     0
 49
0.352778
 74
     0
 49
-1.411111
 74
     0
 49
0.352778
 74
     0
  0
ENDTAB
  0
TABLE
  2
LAYER
  5
2
100
AcDbSymbolTable
 70
     3
  0
LAYER
  5
14
100
AcDbSymbolTableRecord
100
AcDbLayerTableRecord
  2
0
 70
     0
 62
     7
  6
Continuous
290
     1
370
    -3
390
1D
  0
LAYER
  5
28
100
AcDbSymbolTableRecord
100
AcDbLayerTableRecord
  2
RAHMEN
 70
     0
 62
     1
  6
Continuous
290
     1
370
    -3
390
1D
  0
LAYER
  5
2F
100
AcDbSymbolTableRecord
100
AcDbLayerTableRecord
  2
BODEN-3_8
 70
     0
 62
     1
  6
Continuous
290
     1
370
    -3
390
1D
  0
ENDTAB
  0
TABLE
  2
STYLE
  5
3
100
AcDbSymbolTable
 70
     5
  0
STYLE
  5
17
100
AcDbSymbolTableRecord
100
AcDbTextStyleTableRecord
  2
Standard
 70
     0
 40
0.0
 41
1.0
 50
0.0
 71
     0
 42
0.0
  3
txt
  4

  0
STYLE
  5
24
100
AcDbSymbolTableRecord
100
AcDbTextStyleTableRecord
  2
STD
 70
     0
 40
0.0
 41
1.0
 50
0.0
 71
     0
 42
0.0
  3
txt
  4

  0
STYLE
  5
25
100
AcDbSymbolTableRecord
100
AcDbTextStyleTableRecord
  2
TATESTD
 70
     4
 40
0.0
 41
1.0
 50
0.0
 71
     0
 42
0.0
  3
txt
  4

  0
STYLE
  5
26
100
AcDbSymbolTableRecord
100
AcDbTextStyleTableRecord
  2
KANJISTD
 70
     0
 40
0.0
 41
1.0
 50
0.0
 71
     0
 42
0.0
  3
txt
  4
extfont
  0
STYLE
  5
27
100
AcDbSymbolTableRecord
100
AcDbTextStyleTableRecord
  2
KANJITATE
 70
     4
 40
0.0
 41
1.0
 50
0.0
 71
     0
 42
0.0
  3
txt
  4
extfont
  0
ENDTAB
  0
TABLE
  2
VIEW
  5
5
100
AcDbSymbolTable
 70
     0
  0
ENDTAB
  0
TABLE
  2
UCS
  5
6
100
AcDbSymbolTable
 70
     0
  0
ENDTAB
  0
TABLE
  2
APPID
  5
8
100
AcDbSymbolTable
 70
     1
  0
APPID
  5
16
100
AcDbSymbolTableRecord
100
AcDbRegAppTableRecord
  2
ACAD
 70
     0
  0
ENDTAB
  0
TABLE
  2
DIMSTYLE
  5
9
100
AcDbSymbolTable
 70
     1
100
AcDbDimStyleTable
 71
     0
  0
DIMSTYLE
105
18
100
AcDbSymbolTableRecord
100
AcDbDimStyleTableRecord
  2
Standard
 70
     0
  3

  4

 40
1.0
 41
0.18
 42
0.0625
 43
0.38
 44
0.18
 45
0.0
 46
0.0
 47
0.0
 48
0.0
 71
     0
 72
     0
 73
     1
 74
     1
 75
     0
 76
     0
 77
     0
 78
     0
 79
     0
140
0.18
141
0.09
142
0.0
143
25.4
144
1.0
145
0.0
146
1.0
147
0.09
148
0.0
170
     0
171
     2
172
     0
173
     0
174
     0
175
     0
176
     0
177
     0
178
     0
179
     0
271
     4
272
     4
273
     2
274
     2
275
     0
276
     0
277
     2
278
    46
279
     0
280
     0
281
     0
282
     0
283
     1
284
     0
285
     0
286
     0
288
     0
340
17
341
0
342
0
343
0
344
0
371
    -2
372
    -2
  0
ENDTAB
  0
TABLE
  2
BLOCK_RECORD
  5
1
100
AcDbSymbolTable
 70
     1
  0
BLOCK_RECORD
  5
A
100
AcDbSymbolTableRecord
100
AcDbBlockTableRecord
  2
*MODEL_SPACE
340
20
  0
BLOCK_RECORD
  5
B
100
AcDbSymbolTableRecord
100
AcDbBlockTableRecord
  2
*PAPER_SPACE
340
21
  0
BLOCK_RECORD
  5
30
100
AcDbSymbolTableRecord
100
AcDbBlockTableRecord
  2
AI9-BLK1
340
0
102
{BLKREFS
331
31
102
}
  0
ENDTAB
  0
ENDSEC
  0
SECTION
  2
BLOCKS
  0
BLOCK
  5
D
100
AcDbEntity
  8
0
100
AcDbBlockBegin
  2
*MODEL_SPACE
 70
     0
 10
0.0
 20
0.0
 30
0.0
  3
*MODEL_SPACE
  1

  0
ENDBLK
  5
E
100
AcDbEntity
  8
0
100
AcDbBlockEnd
  0
BLOCK
  5
F
100
AcDbEntity
 67
     1
  8
0
100
AcDbBlockBegin
  2
*PAPER_SPACE
 70
     0
 10
0.0
 20
0.0
 30
0.0
  3
*PAPER_SPACE
  1

  0
ENDBLK
  5
10
100
AcDbEntity
 67
     1
  8
0
100
AcDbBlockEnd
  0
BLOCK
  5
32
100
AcDbEntity
  8
BODEN-3_8
 62
     7
100
AcDbBlockBegin
  2
AI9-BLK1
 70
     0
 10
0.0
 20
0.0
 30
0.0
  3
AI9-BLK1
  1

  0
HATCH
  5
18B
100
AcDbEntity
  8
BODEN-3_8
 62
     7
100
AcDbHatch
 10
0.0
 20
0.0
 30
0.0
210
0.0
220
0.0
230
1.0
  2
SOLID
 70
     1
 71
     0
 91
        4
 92
       16
 93
        1
 72
     4
 94
        3
 73
     0
 74
     0
 95
       20
 96
       16
 40
0.0
 40
0.0
 40
0.0
 40
0.0
 40
1.0
 40
1.0
 40
1.0
 40
2.0
 40
2.0
 40
2.0
 40
3.0
 40
3.0
 40
3.0
 40
4.0
 40
4.0
 40
4.0
 40
5.0
 40
5.0
 40
5.0
 40
5.0
 10
19.839874267578121
 20
10.051755099826387
 10
19.839874267578121
 20
10.051755099826387
 10
14.772138807508679
 20
10.051755099826387
 10
14.772138807508679
 20
10.051755099826387
 10
14.772138807508679
 20
10.051755099826387
 10
14.772138807508679
 20
5.4849365234374998
 10
14.772138807508679
 20
5.4849365234374998
 10
14.772138807508679
 20
5.4849365234374998
 10
19.383054606119789
 20
5.4849365234374998
 10
19.383054606119789
 20
5.4849365234374998
 10
19.383054606119789
 20
5.4849365234374998
 10
19.839874267578121
 20
5.4849365234374998
 10
19.839874267578121
 20
5.4849365234374998
 10
19.839874267578121
 20
5.4849365234374998
 10
19.839874267578121
 20
10.051755099826387
 10
19.839874267578121
 20
10.051755099826387
 97
        0
 92
       16
 93
        1
 72
     4
 94
        3
 73
     0
 74
     0
 95
       17
 96
       13
 40
0.0
 40
0.0
 40
0.0
 40
0.0
 40
1.0
 40
1.0
 40
1.0
 40
2.0
 40
2.0
 40
2.0
 40
3.0
 40
3.0
 40
3.0
 40
4.0
 40
4.0
 40
4.0
 40
4.0
 10
14.772138807508679
 20
10.051755099826387
 10
14.772138807508679
 20
10.051755099826387
 10
-2.9945631239149302
 20
10.051755099826387
 10
-2.9945631239149302
 20
10.051755099826387
 10
-2.9945631239149302
 20
10.051755099826387
 10
-2.9945631239149302
 20
5.4849365234374998
 10
-2.9945631239149302
 20
5.4849365234374998
 10
-2.9945631239149302
 20
5.4849365234374998
 10
14.772138807508679
 20
5.4849365234374998
 10
14.772138807508679
 20
5.4849365234374998
 10
14.772138807508679
 20
5.4849365234374998
 10
14.772138807508679
 20
10.051755099826387
 10
14.772138807508679
 20
10.051755099826387
 97
        0
 92
       16
 93
        1
 72
     4
 94
        3
 73
     0
 74
     0
 95
       17
 96
       13
 40
0.0
 40
0.0
 40
0.0
 40
0.0
 40
1.0
 40
1.0
 40
1.0
 40
2.0
 40
2.0
 40
2.0
 40
3.0
 40
3.0
 40
3.0
 40
4.0
 40
4.0
 40
4.0
 40
4.0
 10
-2.9945631239149302
 20
10.051755099826387
 10
-2.9945631239149302
 20
10.051755099826387
 10
-20.760920545789929
 20
10.051755099826387
 10
-20.760920545789929
 20
10.051755099826387
 10
-20.760920545789929
 20
10.051755099826387
 10
-20.760920545789929
 20
5.4849365234374998
 10
-20.760920545789929
 20
5.4849365234374998
 10
-20.760920545789929
 20
5.4849365234374998
 10
-2.9945631239149302
 20
5.4849365234374998
 10
-2.9945631239149302
 20
5.4849365234374998
 10
-2.9945631239149302
 20
5.4849365234374998
 10
-2.9945631239149302
 20
10.051755099826387
 10
-2.9945631239149302
 20
10.051755099826387
 97
        0
 92
       16
 93
        1
 72
     4
 94
        3
 73
     0
 74
     0
 95
       17
 96
       13
 40
0.0
 40
0.0
 40
0.0
 40
0.0
 40
1.0
 40
1.0
 40
1.0
 40
2.0
 40
2.0
 40
2.0
 40
3.0
 40
3.0
 40
3.0
 40
4.0
 40
4.0
 40
4.0
 40
4.0
 10
-20.760920545789929
 20
10.051755099826387
 10
-20.760920545789929
 20
10.051755099826387
 10
-25.828828260633678
 20
10.051755099826387
 10
-25.828828260633678
 20
10.051755099826387
 10
-25.828828260633678
 20
10.051755099826387
 10
-25.828828260633678
 20
5.4849365234374998
 10
-25.828828260633678
 20
5.4849365234374998
 10
-25.828828260633678
 20
5.4849365234374998
 10
-20.760920545789929
 20
5.4849365234374998
 10
-20.760920545789929
 20
5.4849365234374998
 10
-20.760920545789929
 20
5.4849365234374998
 10
-20.760920545789929
 20
10.051755099826387
 10
-20.760920545789929
 20
10.051755099826387
 97
        0
 75
     0
 76
     1
 98
        1
 10
0.0
 20
0.0
  0
LINE
  5
18A
100
AcDbEntity
  8
BODEN-3_8
  6
AI9-LType3
 62
     7
100
AcDbLine
 10
-60.080312
 20
55.84362
 30
0.0
 11
-60.080312
 21
-0.100252
 31
0.0
  0
LINE
  5
189
100
AcDbEntity
  8
BODEN-3_8
  6
AI9-LType3
 62
     7
100
AcDbLine
 10
54.091358
 20
55.84362
 30
0.0
 11
54.091358
 21
-0.100252
 31
0.0
  0
HATCH
  5
187
100
AcDbEntity
  8
BODEN-3_8
 62
   154
100
AcDbHatch
 10
0.0
 20
0.0
 30
0.0
210
0.0
220
0.0
230
1.0
  2
SOLID
 70
     1
 71
     0
 91
        1
 92
        1
 93
        1
 72
     4
 94
        3
 73
     0
 74
     0
 95
       23
 96
       19
 40
0.0
 40
0.0
 40
0.0
 40
0.0
 40
1.0
 40
1.0
 40
1.0
 40
2.0
 40
2.0
 40
2.0
 40
3.0
 40
3.0
 40
3.0
 40
4.0
 40
4.0
 40
4.0
 40
5.0
 40
5.0
 40
5.0
 40
6.0
 40
6.0
 40
6.0
 40
6.0
 10
47.493311225043399
 20
-17.5338134765625
 10
47.493311225043399
 20
-17.5338134765625
 10
47.088857014973954
 20
-17.284388563368054
 10
46.538675265842009
 20
-17.021183268229166
 10
42.003896077473954
 20
-14.85215115017361
 10
43.109771728515618
 20
-19.247403971354164
 10
38.621156819661458
 20
-16.485126410590276
 10
37.987948269314231
 20
-16.095830620659722
 10
37.403660074869791
 20
-17.044609917534721
 10
38.036868625217011
 20
-17.434594726562498
 10
38.036868625217011
 20
-17.434594726562498
 10
38.441322835286456
 20
-17.684019639756944
 10
38.990815565321178
 20
-17.946535915798609
 10
43.520082600911458
 20
-20.114189995659721
 10
42.419719102647562
 20
-15.727205403645831
 10
46.909367540147564
 20
-18.483281792534722
 10
47.542231580946179
 20
-18.872577582465276
 10
48.126175265842008
 20
-17.923109266493054
 10
47.493311225043399
 20
-17.5338134765625
 97
        0
 75
     0
 76
     1
 98
        1
 10
0.0
 20
0.0
  0
HATCH
  5
186
100
AcDbEntity
  8
BODEN-3_8
 62
   154
100
AcDbHatch
 10
0.0
 20
0.0
 30
0.0
210
0.0
220
0.0
230
1.0
  2
SOLID
 70
     1
 71
     0
 91
        1
 92
        1
 93
        1
 72
     4
 94
        3
 73
     0
 74
     0
 95
       23
 96
       19
 40
0.0
 40
0.0
 40
0.0
 40
0.0
 40
1.0
 40
1.0
 40
1.0
 40
2.0
 40
2.0
 40
2.0
 40
3.0
 40
3.0
 40
3.0
 40
4.0
 40
4.0
 40
4.0
 40
5.0
 40
5.0
 40
5.0
 40
6.0
 40
6.0
 40
6.0
 40
6.0
 10
47.493311225043399
 20
-22.777248806423611
 10
47.493311225043399
 20
-22.777248806423611
 10
47.088857014973954
 20
-22.527823893229165
 10
46.538675265842009
 20
-22.264618598090276
 10
42.003896077473954
 20
-20.095586480034722
 10
43.109771728515618
 20
-24.490839301215274
 10
38.621156819661458
 20
-21.728561740451386
 10
37.987948269314231
 20
-21.33857693142361
 10
37.403660074869791
 20
-22.288045247395832
 10
38.036868625217011
 20
-22.678030056423609
 10
38.036868625217011
 20
-22.678030056423609
 10
38.441322835286456
 20
-22.926765950520831
 10
38.990815565321178
 20
-23.18997124565972
 10
43.520082600911458
 20
-25.358314344618055
 10
42.419719102647562
 20
-20.970640733506944
 10
46.909367540147564
 20
-23.726717122395833
 10
47.542231580946179
 20
-24.116012912326386
 10
48.126175265842008
 20
-23.166544596354164
 10
47.493311225043399
 20
-22.777248806423611
 97
        0
 75
     0
 76
     1
 98
        1
 10
0.0
 20
0.0
  0
HATCH
  5
185
100
AcDbEntity
  8
BODEN-3_8
 62
   154
100
AcDbHatch
 10
0.0
 20
0.0
 30
0.0
210
0.0
220
0.0
230
1.0
  2
SOLID
 70
     1
 71
     0
 91
        1
 92
        1
 93
        1
 72
     4
 94
        3
 73
     0
 74
     0
 95
       23
 96
       19
 40
0.0
 40
0.0
 40
0.0
 40
0.0
 40
1.0
 40
1.0
 40
1.0
 40
2.0
 40
2.0
 40
2.0
 40
3.0
 40
3.0
 40
3.0
 40
4.0
 40
4.0
 40
4.0
 40
5.0
 40
5.0
 40
5.0
 40
6.0
 40
6.0
 40
6.0
 40
6.0
 10
47.493311225043399
 20
-20.155531141493054
 10
47.493311225043399
 20
-20.155531141493054
 10
47.088857014973954
 20
-19.906106228298608
 10
46.538675265842009
 20
-19.643589952256942
 10
42.003896077473954
 20
-17.473868815104165
 10
43.109771728515618
 20
-21.869121636284721
 10
38.621156819661458
 20
-19.106844075520833
 10
37.987948269314231
 20
-18.716859266493053
 10
37.403660074869791
 20
-19.666327582465275
 10
38.036868625217011
 20
-20.056312391493055
 10
38.036868625217011
 20
-20.056312391493055
 10
38.441322835286456
 20
-20.305048285590274
 10
38.990815565321178
 20
-20.568253580729166
 10
43.520082600911458
 20
-22.735907660590275
 10
42.419719102647562
 20
-18.348923068576386
 10
46.909367540147564
 20
-21.104999457465276
 10
47.542231580946179
 20
-21.494295247395833
 10
48.126175265842008
 20
-20.544826931423611
 10
47.493311225043399
 20
-20.155531141493054
 97
        0
 75
     0
 76
     1
 98
        1
 10
0.0
 20
0.0
  0
HATCH
  5
184
100
AcDbEntity
  8
BODEN-3_8
 62
   154
100
AcDbHatch
 10
0.0
 20
0.0
 30
0.0
210
0.0
220
0.0
230
1.0
  2
SOLID
 70
     1
 71
     0
 91
        1
 92
        1
 93
        1
 72
     4
 94
        3
 73
     0
 74
     0
 95
       23
 96
       19
 40
0.0
 40
0.0
 40
0.0
 40
0.0
 40
1.0
 40
1.0
 40
1.0
 40
2.0
 40
2.0
 40
2.0
 40
3.0
 40
3.0
 40
3.0
 40
4.0
 40
4.0
 40
4.0
 40
5.0
 40
5.0
 40
5.0
 40
6.0
 40
6.0
 40
6.0
 40
6.0
 10
47.493311225043399
 20
-14.916918945312499
 10
47.493311225043399
 20
-14.916918945312499
 10
47.088857014973954
 20
-14.667494032118054
 10
46.538675265842009
 20
-14.404288736979165
 10
42.003896077473954
 20
-12.235256618923611
 10
43.109771728515618
 20
-16.630509440104166
 10
38.621156819661458
 20
-13.867542860243054
 10
37.987948269314231
 20
-13.478247070312499
 10
37.403660074869791
 20
-14.427715386284721
 10
38.036868625217011
 20
-14.817011176215276
 10
38.036868625217011
 20
-14.817011176215276
 10
38.441322835286456
 20
-15.06643608940972
 10
38.990815565321178
 20
-15.32964138454861
 10
43.520082600911458
 20
-17.497295464409721
 10
42.419719102647562
 20
-13.110310872395832
 10
46.909367540147564
 20
-15.865698242187499
 10
47.542231580946179
 20
-16.255683051215275
 10
48.126175265842008
 20
-15.305525716145832
 10
47.493311225043399
 20
-14.916918945312499
 97
        0
 75
     0
 76
     1
 98
        1
 10
0.0
 20
0.0
  0
LINE
  5
183
100
AcDbEntity
  8
BODEN-3_8
 62
     7
100
AcDbLine
 10
-3.464819
 20
62.452863
 30
0.0
 11
-3.989162
 21
62.977207
 31
0.0
  0
LINE
  5
182
100
AcDbEntity
  8
BODEN-3_8
 62
     7
100
AcDbLine
 10
-0.738715
 20
61.745241
 30
0.0
 11
-0.772821
 21
61.779175
 31
0.0
  0
LINE
  5
181
100
AcDbEntity
  8
BODEN-3_8
 62
     7
100
AcDbLine
 10
-6.274983
 20
62.740356
 30
0.0
 11
-7.069078
 21
63.534623
 31
0.0
  0
LINE
  5
180
100
AcDbEntity
  8
BODEN-3_8
 62
     7
100
AcDbLine
 10
-6.429323
 20
60.379605
 30
0.0
 11
-7.001209
 21
60.951491
 31
0.0
  0
LINE
  5
17F
100
AcDbEntity
  8
BODEN-3_8
 62
     7
100
AcDbLine
 10
-10.444927
 20
59.846304
 30
0.0
 11
-11.459335
 21
60.860712
 31
0.0
  0
LINE
  5
17E
100
AcDbEntity
  8
BODEN-3_8
 62
     7
100
AcDbLine
 10
-10.923795
 20
59.820466
 30
0.0
 11
-11.980406
 21
60.877077
 31
0.0
  0
LINE
  5
17D
100
AcDbEntity
  8
BODEN-3_8
 62
     7
100
AcDbLine
 10
-10.416677
 20
62.845432
 30
0.0
 11
-11.426434
 21
63.855362
 31
0.0
  0
LINE
  5
17C
100
AcDbEntity
  8
BODEN-3_8
 62
     7
100
AcDbLine
 10
-10.908636
 20
62.832857
 30
0.0
 11
-11.933552
 21
63.857773
 31
0.0
  0
LINE
  5
17B
100
AcDbEntity
  8
BODEN-3_8
 62
     7
100
AcDbLine
 10
-11.410242
 20
59.802379
 30
0.0
 11
-12.507161
 21
60.89947
 31
0.0
  0
LINE
  5
17A
100
AcDbEntity
  8
BODEN-3_8
 62
     7
100
AcDbLine
 10
-11.904614
 20
59.792216
 30
0.0
 11
-13.040289
 21
60.927892
 31
0.0
  0
LINE
  5
179
100
AcDbEntity
  8
BODEN-3_8
 62
     7
100
AcDbLine
 10
-12.407598
 20
59.790666
 30
0.0
 11
-13.578241
 21
60.961309
 31
0.0
  0
LINE
  5
178
100
AcDbEntity
  8
BODEN-3_8
 62
     7
100
AcDbLine
 10
-12.919539
 20
59.798073
 30
0.0
 11
-15.4789
 21
62.357434
 31
0.0
  0
LINE
  5
177
100
AcDbEntity
  8
BODEN-3_8
 62
     7
100
AcDbLine
 10
-13.440782
 20
59.814609
 30
0.0
 11
-15.550558
 21
61.924386
 31
0.0
  0
LINE
  5
176
100
AcDbEntity
  8
BODEN-3_8
 62
     7
100
AcDbLine
 10
-14.000093
 20
59.869386
 30
0.0
 11
-15.503188
 21
61.372481
 31
0.0
  0
LINE
  5
175
100
AcDbEntity
  8
BODEN-3_8
 62
     7
100
AcDbLine
 10
-11.395601
 20
62.815287
 30
0.0
 11
-12.433436
 21
63.85295
 31
0.0
  0
LINE
  5
174
100
AcDbEntity
  8
BODEN-3_8
 62
     7
100
AcDbLine
 10
-11.877397
 20
62.79255
 30
0.0
 11
-12.926429
 21
63.841581
 31
0.0
  0
LINE
  5
173
100
AcDbEntity
  8
BODEN-3_8
 62
     7
100
AcDbLine
 10
-12.354543
 20
62.764989
 30
0.0
 11
-13.412876
 21
63.823494
 31
0.0
  0
LINE
  5
172
100
AcDbEntity
  8
BODEN-3_8
 62
     7
100
AcDbLine
 10
-12.826866
 20
62.732949
 30
0.0
 11
-13.882443
 21
63.788354
 31
0.0
  0
LINE
  5
171
100
AcDbEntity
  8
BODEN-3_8
 62
     7
100
AcDbLine
 10
-13.29471
 20
62.696087
 30
0.0
 11
-14.278457
 21
63.679834
 31
0.0
  0
LINE
  5
170
100
AcDbEntity
  8
BODEN-3_8
 62
     7
100
AcDbLine
 10
-13.753596
 20
62.650267
 30
0.0
 11
-14.614526
 21
63.511369
 31
0.0
  0
LINE
  5
16F
100
AcDbEntity
  8
BODEN-3_8
 62
     7
100
AcDbLine
 10
-14.092249
 20
62.484386
 30
0.0
 11
-14.901502
 21
63.293811
 31
0.0
  0
LINE
  5
16E
100
AcDbEntity
  8
BODEN-3_8
 62
     7
100
AcDbLine
 10
-14.318247
 20
62.20585
 30
0.0
 11
-15.142831
 21
63.030606
 31
0.0
  0
LINE
  5
16D
100
AcDbEntity
  8
BODEN-3_8
 62
     7
100
AcDbLine
 10
-14.411265
 20
61.794505
 30
0.0
 11
-15.337479
 21
62.720547
 31
0.0
  0
LINE
  5
16C
100
AcDbEntity
  8
BODEN-3_8
 62
     7
100
AcDbLine
 10
-6.857549
 20
60.2952
 30
0.0
 11
-7.483867
 21
60.921691
 31
0.0
  0
LINE
  5
16B
100
AcDbEntity
  8
BODEN-3_8
 62
     7
100
AcDbLine
 10
-7.284741
 20
60.217858
 30
0.0
 11
-7.963424
 21
60.896886
 31
0.0
  0
LINE
  5
16A
100
AcDbEntity
  8
BODEN-3_8
 62
     7
100
AcDbLine
 10
-7.717445
 20
60.146027
 30
0.0
 11
-8.447805
 21
60.876732
 31
0.0
  0
LINE
  5
169
100
AcDbEntity
  8
BODEN-3_8
 62
     7
100
AcDbLine
 10
-8.156005
 20
60.080226
 30
0.0
 11
-8.937008
 21
60.861229
 31
0.0
  0
LINE
  5
168
100
AcDbEntity
  8
BODEN-3_8
 62
     7
100
AcDbLine
 10
-8.600767
 20
60.020281
 30
0.0
 11
-9.431035
 21
60.850722
 31
0.0
  0
LINE
  5
167
100
AcDbEntity
  8
BODEN-3_8
 62
     7
100
AcDbLine
 10
-9.05173
 20
59.966882
 30
0.0
 11
-9.930229
 21
60.845209
 31
0.0
  0
LINE
  5
166
100
AcDbEntity
  8
BODEN-3_8
 62
     7
100
AcDbLine
 10
-9.509239
 20
59.919857
 30
0.0
 11
-10.434419
 21
60.845037
 31
0.0
  0
LINE
  5
165
100
AcDbEntity
  8
BODEN-3_8
 62
     7
100
AcDbLine
 10
-9.973638
 20
59.879549
 30
0.0
 11
-10.944121
 21
60.850033
 31
0.0
  0
LINE
  5
164
100
AcDbEntity
  8
BODEN-3_8
 62
     7
100
AcDbLine
 10
-8.394234
 20
62.841298
 30
0.0
 11
-9.320447
 21
63.767512
 31
0.0
  0
LINE
  5
163
100
AcDbEntity
  8
BODEN-3_8
 62
     7
100
AcDbLine
 10
-7.873852
 20
62.825623
 30
0.0
 11
-8.772677
 21
63.724103
 31
0.0
  0
LINE
  5
162
100
AcDbEntity
  8
BODEN-3_8
 62
     7
100
AcDbLine
 10
-7.347441
 20
62.803918
 30
0.0
 11
-8.215089
 21
63.671394
 31
0.0
  0
LINE
  5
161
100
AcDbEntity
  8
BODEN-3_8
 62
     7
100
AcDbLine
 10
-6.81483
 20
62.775496
 30
0.0
 11
-7.647509
 21
63.608348
 31
0.0
  0
LINE
  5
160
100
AcDbEntity
  8
BODEN-3_8
 62
     7
100
AcDbLine
 10
-8.908414
 20
62.850772
 30
0.0
 11
-9.859433
 21
63.801963
 31
0.0
  0
LINE
  5
15F
100
AcDbEntity
  8
BODEN-3_8
 62
     7
100
AcDbLine
 10
-9.416738
 20
62.854561
 30
0.0
 11
-10.389805
 21
63.827801
 31
0.0
  0
LINE
  5
15E
100
AcDbEntity
  8
BODEN-3_8
 62
     7
100
AcDbLine
 10
-9.919377
 20
62.852839
 30
0.0
 11
-10.912082
 21
63.845371
 31
0.0
  0
LINE
  5
15D
100
AcDbEntity
  8
BODEN-3_8
 62
     7
100
AcDbLine
 10
-1.92934
 20
61.422091
 30
0.0
 11
-2.048884
 21
61.541635
 31
0.0
  0
LINE
  5
15C
100
AcDbEntity
  8
BODEN-3_8
 62
     7
100
AcDbLine
 10
-1.675436
 20
62.177256
 30
0.0
 11
-1.948288
 21
62.450107
 31
0.0
  0
LINE
  5
15B
100
AcDbEntity
  8
BODEN-3_8
 62
     7
100
AcDbLine
 10
-6.016601
 20
60.463665
 30
0.0
 11
-6.537844
 21
60.984736
 31
0.0
  0
LINE
  5
15A
100
AcDbEntity
  8
BODEN-3_8
 62
     7
100
AcDbLine
 10
-5.5994
 20
60.551171
 30
0.0
 11
-6.071033
 21
61.022804
 31
0.0
  0
LINE
  5
159
100
AcDbEntity
  8
BODEN-3_8
 62
     7
100
AcDbLine
 10
-5.183921
 20
60.640398
 30
0.0
 11
-5.608702
 21
61.064834
 31
0.0
  0
LINE
  5
158
100
AcDbEntity
  8
BODEN-3_8
 62
     7
100
AcDbLine
 10
-4.770854
 20
60.731521
 30
0.0
 11
-5.150504
 21
61.111171
 31
0.0
  0
LINE
  5
157
100
AcDbEntity
  8
BODEN-3_8
 62
     7
100
AcDbLine
 10
-4.359165
 20
60.824711
 30
0.0
 11
-4.696096
 21
61.161297
 31
0.0
  0
LINE
  5
156
100
AcDbEntity
  8
BODEN-3_8
 62
     7
100
AcDbLine
 10
-3.949888
 20
60.919623
 30
0.0
 11
-4.245477
 21
61.215557
 31
0.0
  0
LINE
  5
155
100
AcDbEntity
  8
BODEN-3_8
 62
     7
100
AcDbLine
 10
-3.541989
 20
61.016431
 30
0.0
 11
-3.798993
 21
61.273607
 31
0.0
  0
LINE
  5
154
100
AcDbEntity
  8
BODEN-3_8
 62
     7
100
AcDbLine
 10
-3.136157
 20
61.115133
 30
0.0
 11
-3.355954
 21
61.335274
 31
0.0
  0
LINE
  5
153
100
AcDbEntity
  8
BODEN-3_8
 62
     7
100
AcDbLine
 10
-2.732047
 20
61.215729
 30
0.0
 11
-2.917048
 21
61.400387
 31
0.0
  0
LINE
  5
152
100
AcDbEntity
  8
BODEN-3_8
 62
     7
100
AcDbLine
 10
-2.330004
 20
61.318049
 30
0.0
 11
-2.480899
 21
61.469288
 31
0.0
  0
LINE
  5
151
100
AcDbEntity
  8
BODEN-3_8
 62
     7
100
AcDbLine
 10
-2.281428
 20
62.278714
 30
0.0
 11
-2.648331
 21
62.645444
 31
0.0
  0
LINE
  5
150
100
AcDbEntity
  8
BODEN-3_8
 62
     7
100
AcDbLine
 10
-5.728246
 20
62.698154
 30
0.0
 11
-6.479622
 21
63.449529
 31
0.0
  0
LINE
  5
14F
100
AcDbEntity
  8
BODEN-3_8
 62
     7
100
AcDbLine
 10
-5.174275
 20
62.648717
 30
0.0
 11
-5.877764
 21
63.352205
 31
0.0
  0
LINE
  5
14E
100
AcDbEntity
  8
BODEN-3_8
 62
     7
100
AcDbLine
 10
-4.612724
 20
62.591701
 30
0.0
 11
-5.262469
 21
63.24179
 31
0.0
  0
LINE
  5
14D
100
AcDbEntity
  8
BODEN-3_8
 62
     7
100
AcDbLine
 10
-4.042906
 20
62.526416
 30
0.0
 11
-4.633395
 21
63.117078
 31
0.0
  0
LINE
  5
14C
100
AcDbEntity
  8
BODEN-3_8
 62
     7
100
AcDbLine
 10
-2.877774
 20
62.370525
 30
0.0
 11
-3.327704
 21
62.820455
 31
0.0
  0
LINE
  5
14B
100
AcDbEntity
  8
BODEN-3_8
 62
     7
100
AcDbLine
 10
-1.530742
 20
61.5282
 30
0.0
 11
-1.620315
 21
61.617428
 31
0.0
  0
LINE
  5
14A
100
AcDbEntity
  8
BODEN-3_8
 62
     7
100
AcDbLine
 10
-1.058764
 20
62.06529
 30
0.0
 11
-1.225507
 21
62.232205
 31
0.0
  0
LINE
  5
149
100
AcDbEntity
  8
BODEN-3_8
 62
     7
100
AcDbLine
 10
-1.133867
 20
61.635687
 30
0.0
 11
-1.194845
 21
61.696665
 31
0.0
  0
LINE
  5
148
100
AcDbEntity
  8
BODEN-3_8
 62
     7
100
AcDbLine
 10
-0.345285
 20
61.856345
 30
0.0
 11
-0.353897
 21
61.864958
 31
0.0
  0
LINE
  5
147
100
AcDbEntity
  8
BODEN-3_8
 62
     7
100
AcDbLine
 10
-0.431068
 20
61.942128
 30
0.0
 11
-0.477576
 21
61.988637
 31
0.0
  0
LINE
  5
146
100
AcDbEntity
  8
BODEN-3_8
 62
     7
100
AcDbLine
 10
2.40528
 20
-12.23319
 30
0.0
 11
3.331666
 21
-13.159231
 31
0.0
  0
LINE
  5
145
100
AcDbEntity
  8
BODEN-3_8
 62
     7
100
AcDbLine
 10
1.88507
 20
-12.217342
 30
0.0
 11
2.783551
 21
-13.115823
 31
0.0
  0
LINE
  5
144
100
AcDbEntity
  8
BODEN-3_8
 62
     7
100
AcDbLine
 10
2.611641
 20
-9.412345
 30
0.0
 11
3.441909
 21
-10.242613
 31
0.0
  0
LINE
  5
143
100
AcDbEntity
  8
BODEN-3_8
 62
     7
100
AcDbLine
 10
-2.85297
 20
-10.507197
 30
0.0
 11
-2.632828
 21
-10.726994
 31
0.0
  0
LINE
  5
142
100
AcDbEntity
  8
BODEN-3_8
 62
     7
100
AcDbLine
 10
2.167223
 20
-9.47229
 30
0.0
 11
2.947882
 21
-10.252949
 31
0.0
  0
LINE
  5
141
100
AcDbEntity
  8
BODEN-3_8
 62
     7
100
AcDbLine
 10
-4.458384
 20
-10.919919
 30
0.0
 11
-4.368812
 21
-11.009492
 31
0.0
  0
LINE
  5
140
100
AcDbEntity
  8
BODEN-3_8
 62
     7
100
AcDbLine
 10
-2.039238
 20
-10.311515
 30
0.0
 11
-1.743304
 21
-10.607104
 31
0.0
  0
LINE
  5
13F
100
AcDbEntity
  8
BODEN-3_8
 62
     7
100
AcDbLine
 10
-2.447137
 20
-10.407978
 30
0.0
 11
-2.190133
 21
-10.664982
 31
0.0
  0
LINE
  5
13E
100
AcDbEntity
  8
BODEN-3_8
 62
     7
100
AcDbLine
 10
-3.659122
 20
-10.709768
 30
0.0
 11
-3.507882
 21
-10.861353
 31
0.0
  0
LINE
  5
13D
100
AcDbEntity
  8
BODEN-3_8
 62
     7
100
AcDbLine
 10
-3.256735
 20
-10.607794
 30
0.0
 11
-3.072078
 21
-10.792451
 31
0.0
  0
LINE
  5
13C
100
AcDbEntity
  8
BODEN-3_8
 62
     7
100
AcDbLine
 10
-4.31369
 20
-11.568975
 30
0.0
 11
-4.040839
 21
-11.841827
 31
0.0
  0
LINE
  5
13B
100
AcDbEntity
  8
BODEN-3_8
 62
     7
100
AcDbLine
 10
-4.059442
 20
-10.81381
 30
0.0
 11
-3.940242
 21
-10.9337
 31
0.0
  0
LINE
  5
13A
100
AcDbEntity
  8
BODEN-3_8
 62
     7
100
AcDbLine
 10
-4.855259
 20
-11.027406
 30
0.0
 11
-4.793936
 21
-11.088729
 31
0.0
  0
LINE
  5
139
100
AcDbEntity
  8
BODEN-3_8
 62
     7
100
AcDbLine
 10
-3.707353
 20
-11.670261
 30
0.0
 11
-3.340795
 21
-12.037508
 31
0.0
  0
LINE
  5
138
100
AcDbEntity
  8
BODEN-3_8
 62
     7
100
AcDbLine
 10
-5.250067
 20
-11.13696
 30
0.0
 11
-5.216305
 21
-11.170722
 31
0.0
  0
LINE
  5
137
100
AcDbEntity
  8
BODEN-3_8
 62
     7
100
AcDbLine
 10
5.888616
 20
-12.184269
 30
0.0
 11
6.937303
 21
-13.233645
 31
0.0
  0
LINE
  5
136
100
AcDbEntity
  8
BODEN-3_8
 62
     7
100
AcDbLine
 10
-5.643497
 20
-11.247892
 30
0.0
 11
-5.635229
 21
-11.25685
 31
0.0
  0
LINE
  5
135
100
AcDbEntity
  8
BODEN-3_8
 62
     7
100
AcDbLine
 10
-4.930362
 20
-11.456665
 30
0.0
 11
-4.763275
 21
-11.624097
 31
0.0
  0
LINE
  5
134
100
AcDbEntity
  8
BODEN-3_8
 62
     7
100
AcDbLine
 10
-2.524308
 20
-11.844583
 30
0.0
 11
-1.999964
 21
-12.368926
 31
0.0
  0
LINE
  5
133
100
AcDbEntity
  8
BODEN-3_8
 62
     7
100
AcDbLine
 10
-5.558059
 20
-11.33402
 30
0.0
 11
-5.511205
 21
-11.380184
 31
0.0
  0
LINE
  5
132
100
AcDbEntity
  8
BODEN-3_8
 62
     7
100
AcDbLine
 10
0.027819
 20
-9.855385
 30
0.0
 11
0.548718
 21
-10.376283
 31
0.0
  0
LINE
  5
131
100
AcDbEntity
  8
BODEN-3_8
 62
     7
100
AcDbLine
 10
1.35866
 20
-12.195294
 30
0.0
 11
2.226135
 21
-13.063458
 31
0.0
  0
LINE
  5
130
100
AcDbEntity
  8
BODEN-3_8
 62
     7
100
AcDbLine
 10
-3.111352
 20
-11.76259
 30
0.0
 11
-2.661078
 21
-12.212519
 31
0.0
  0
LINE
  5
12F
100
AcDbEntity
  8
BODEN-3_8
 62
     7
100
AcDbLine
 10
-0.389726
 20
-9.94289
 30
0.0
 11
0.082252
 21
-10.414868
 31
0.0
  0
LINE
  5
12E
100
AcDbEntity
  8
BODEN-3_8
 62
     7
100
AcDbLine
 10
-1.218272
 20
-10.123413
 30
0.0
 11
-0.838622
 21
-10.503063
 31
0.0
  0
LINE
  5
12D
100
AcDbEntity
  8
BODEN-3_8
 62
     7
100
AcDbLine
 10
-0.80486
 20
-10.032463
 30
0.0
 11
-0.38008
 21
-10.456898
 31
0.0
  0
LINE
  5
12C
100
AcDbEntity
  8
BODEN-3_8
 62
     7
100
AcDbLine
 10
3.520457
 20
-9.311749
 30
0.0
 11
4.445465
 21
-10.237101
 31
0.0
  0
LINE
  5
12B
100
AcDbEntity
  8
BODEN-3_8
 62
     7
100
AcDbLine
 10
-1.629616
 20
-10.216431
 30
0.0
 11
-1.29303
 21
-10.553361
 31
0.0
  0
LINE
  5
12A
100
AcDbEntity
  8
BODEN-3_8
 62
     7
100
AcDbLine
 10
0.868422
 20
-9.687264
 30
0.0
 11
1.494741
 21
-10.313582
 31
0.0
  0
LINE
  5
129
100
AcDbEntity
  8
BODEN-3_8
 62
     7
100
AcDbLine
 10
1.295614
 20
-9.609405
 30
0.0
 11
1.974643
 21
-10.288778
 31
0.0
  0
LINE
  5
128
100
AcDbEntity
  8
BODEN-3_8
 62
     7
100
AcDbLine
 10
1.728318
 20
-9.537747
 30
0.0
 11
2.459023
 21
-10.268796
 31
0.0
  0
LINE
  5
127
100
AcDbEntity
  8
BODEN-3_8
 62
     7
100
AcDbLine
 10
0.440542
 20
-9.771324
 30
0.0
 11
1.012427
 21
-10.34321
 31
0.0
  0
LINE
  5
126
100
AcDbEntity
  8
BODEN-3_8
 62
     7
100
AcDbLine
 10
0.825703
 20
-12.167044
 30
0.0
 11
1.658727
 21
-13.000068
 31
0.0
  0
LINE
  5
125
100
AcDbEntity
  8
BODEN-3_8
 62
     7
100
AcDbLine
 10
0.286201
 20
-12.131904
 30
0.0
 11
1.080296
 21
-12.926343
 31
0.0
  0
LINE
  5
124
100
AcDbEntity
  8
BODEN-3_8
 62
     7
100
AcDbLine
 10
-0.26088
 20
-12.089874
 30
0.0
 11
0.49084
 21
-12.841593
 31
0.0
  0
LINE
  5
123
100
AcDbEntity
  8
BODEN-3_8
 62
     7
100
AcDbLine
 10
-0.814851
 20
-12.040264
 30
0.0
 11
-0.111363
 21
-12.743753
 31
0.0
  0
LINE
  5
122
100
AcDbEntity
  8
BODEN-3_8
 62
     7
100
AcDbLine
 10
-1.376402
 20
-11.983076
 30
0.0
 11
-0.726312
 21
-12.63351
 31
0.0
  0
LINE
  5
121
100
AcDbEntity
  8
BODEN-3_8
 62
     7
100
AcDbLine
 10
-1.946221
 20
-11.918308
 30
0.0
 11
-1.355387
 21
-12.508797
 31
0.0
  0
LINE
  5
120
100
AcDbEntity
  8
BODEN-3_8
 62
     7
100
AcDbLine
 10
6.418471
 20
-9.182213
 30
0.0
 11
7.589115
 21
-10.352856
 31
0.0
  0
LINE
  5
11F
100
AcDbEntity
  8
BODEN-3_8
 62
     7
100
AcDbLine
 10
6.930412
 20
-9.189792
 30
0.0
 11
9.490118
 21
-11.749498
 31
0.0
  0
LINE
  5
11E
100
AcDbEntity
  8
BODEN-3_8
 62
     7
100
AcDbLine
 10
6.838084
 20
-12.125014
 30
0.0
 11
7.893661
 21
-13.179902
 31
0.0
  0
LINE
  5
11D
100
AcDbEntity
  8
BODEN-3_8
 62
     7
100
AcDbLine
 10
7.305928
 20
-12.087807
 30
0.0
 11
8.289503
 21
-13.071726
 31
0.0
  0
LINE
  5
11C
100
AcDbEntity
  8
BODEN-3_8
 62
     7
100
AcDbLine
 10
2.919632
 20
-12.242836
 30
0.0
 11
3.870479
 21
-13.193682
 31
0.0
  0
LINE
  5
11B
100
AcDbEntity
  8
BODEN-3_8
 62
     7
100
AcDbLine
 10
3.427784
 20
-12.246281
 30
0.0
 11
4.401023
 21
-13.219865
 31
0.0
  0
LINE
  5
11A
100
AcDbEntity
  8
BODEN-3_8
 62
     7
100
AcDbLine
 10
3.930423
 20
-12.244903
 30
0.0
 11
4.9233
 21
-13.23709
 31
0.0
  0
LINE
  5
119
100
AcDbEntity
  8
BODEN-3_8
 62
     7
100
AcDbLine
 10
4.427895
 20
-12.237324
 30
0.0
 11
5.437653
 21
-13.247426
 31
0.0
  0
LINE
  5
118
100
AcDbEntity
  8
BODEN-3_8
 62
     7
100
AcDbLine
 10
4.919855
 20
-12.224921
 30
0.0
 11
5.944426
 21
-13.249493
 31
0.0
  0
LINE
  5
117
100
AcDbEntity
  8
BODEN-3_8
 62
     7
100
AcDbLine
 10
5.406647
 20
-12.207007
 30
0.0
 11
6.444654
 21
-13.24467
 31
0.0
  0
LINE
  5
116
100
AcDbEntity
  8
BODEN-3_8
 62
     7
100
AcDbLine
 10
3.984856
 20
-9.271096
 30
0.0
 11
4.954995
 21
-10.241924
 31
0.0
  0
LINE
  5
115
100
AcDbEntity
  8
BODEN-3_8
 62
     7
100
AcDbLine
 10
3.062948
 20
-9.358602
 30
0.0
 11
3.941448
 21
-10.237101
 31
0.0
  0
LINE
  5
114
100
AcDbEntity
  8
BODEN-3_8
 62
     7
100
AcDbLine
 10
4.456145
 20
-9.238024
 30
0.0
 11
5.470381
 21
-10.25226
 31
0.0
  0
LINE
  5
113
100
AcDbEntity
  8
BODEN-3_8
 62
     7
100
AcDbLine
 10
5.915487
 20
-9.18428
 30
0.0
 11
7.051335
 21
-10.319784
 31
0.0
  0
LINE
  5
112
100
AcDbEntity
  8
BODEN-3_8
 62
     7
100
AcDbLine
 10
4.935013
 20
-9.21253
 30
0.0
 11
5.991279
 21
-10.268796
 31
0.0
  0
LINE
  5
111
100
AcDbEntity
  8
BODEN-3_8
 62
     7
100
AcDbLine
 10
7.764815
 20
-12.042331
 30
0.0
 11
8.625744
 21
-12.902916
 31
0.0
  0
LINE
  5
110
100
AcDbEntity
  8
BODEN-3_8
 62
     7
100
AcDbLine
 10
6.365417
 20
-12.156708
 30
0.0
 11
7.424095
 21
-13.215042
 31
0.0
  0
LINE
  5
10F
100
AcDbEntity
  8
BODEN-3_8
 62
     7
100
AcDbLine
 10
5.421116
 20
-9.193926
 30
0.0
 11
6.518379
 21
-10.291534
 31
0.0
  0
LINE
  5
10E
100
AcDbEntity
  8
BODEN-3_8
 62
     7
100
AcDbLine
 10
8.422139
 20
-11.185881
 30
0.0
 11
9.348525
 21
-12.112611
 31
0.0
  0
LINE
  5
10D
100
AcDbEntity
  8
BODEN-3_8
 62
     7
100
AcDbLine
 10
7.452
 20
-9.206329
 30
0.0
 11
9.561432
 21
-11.316105
 31
0.0
  0
LINE
  5
10C
100
AcDbEntity
  8
BODEN-3_8
 62
     7
100
AcDbLine
 10
8.011139
 20
-9.26145
 30
0.0
 11
9.514234
 21
-10.764201
 31
0.0
  0
LINE
  5
10B
100
AcDbEntity
  8
BODEN-3_8
 62
     7
100
AcDbLine
 10
8.329466
 20
-11.597914
 30
0.0
 11
9.153877
 21
-12.421981
 31
0.0
  0
LINE
  5
10A
100
AcDbEntity
  8
BODEN-3_8
 62
     7
100
AcDbLine
 10
8.103123
 20
-11.876278
 30
0.0
 11
8.91272
 21
-12.685875
 31
0.0
  0
LINE
  5
109
100
AcDbEntity
  8
BODEN-3_8
 62
     7
100
AcDbLine
 10
-28.679473
 20
-0.100252
 30
0.0
 11
-29.912128
 21
1.132403
 31
0.0
  0
LINE
  5
108
100
AcDbEntity
  8
BODEN-3_8
 62
     7
100
AcDbLine
 10
-26.116149
 20
-0.100252
 30
0.0
 11
-29.912128
 21
3.695554
 31
0.0
  0
LINE
  5
107
100
AcDbEntity
  8
BODEN-3_8
 62
     7
100
AcDbLine
 10
-25.828828
 20
2.175578
 30
0.0
 11
-29.308202
 21
5.655124
 31
0.0
  0
LINE
  5
106
100
AcDbEntity
  8
BODEN-3_8
 62
     7
100
AcDbLine
 10
-25.828828
 20
4.738729
 30
0.0
 11
-29.912128
 21
8.821856
 31
0.0
  0
LINE
  5
105
100
AcDbEntity
  8
BODEN-3_8
 62
     7
100
AcDbLine
 10
-25.828828
 20
7.30188
 30
0.0
 11
-29.312164
 21
10.78556
 31
0.0
  0
LINE
  5
104
100
AcDbEntity
  8
BODEN-3_8
 62
     7
100
AcDbLine
 10
-25.828828
 20
9.865031
 30
0.0
 11
-29.912128
 21
13.948158
 31
0.0
  0
LINE
  5
103
100
AcDbEntity
  8
BODEN-3_8
 62
     7
100
AcDbLine
 10
-25.828828
 20
12.428182
 30
0.0
 11
-29.465299
 21
16.064825
 31
0.0
  0
LINE
  5
102
100
AcDbEntity
  8
BODEN-3_8
 62
     7
100
AcDbLine
 10
-25.828828
 20
14.991333
 30
0.0
 11
-29.912128
 21
19.074805
 31
0.0
  0
LINE
  5
101
100
AcDbEntity
  8
BODEN-3_8
 62
     7
100
AcDbLine
 10
-25.828828
 20
17.554484
 30
0.0
 11
-29.488725
 21
21.214726
 31
0.0
  0
LINE
  5
100
100
AcDbEntity
  8
BODEN-3_8
 62
     7
100
AcDbLine
 10
-25.828828
 20
20.11798
 30
0.0
 11
-29.912128
 21
24.201279
 31
0.0
  0
LINE
  5
FF
100
AcDbEntity
  8
BODEN-3_8
 62
     7
100
AcDbLine
 10
-25.828828
 20
22.681303
 30
0.0
 11
-29.912128
 21
26.76443
 31
0.0
  0
LINE
  5
FE
100
AcDbEntity
  8
BODEN-3_8
 62
     7
100
AcDbLine
 10
-25.828828
 20
25.244454
 30
0.0
 11
-29.912128
 21
29.327753
 31
0.0
  0
LINE
  5
FD
100
AcDbEntity
  8
BODEN-3_8
 62
     7
100
AcDbLine
 10
-25.828828
 20
27.807605
 30
0.0
 11
-29.912128
 21
31.891077
 31
0.0
  0
LINE
  5
FC
100
AcDbEntity
  8
BODEN-3_8
 62
     7
100
AcDbLine
 10
-25.828828
 20
30.370756
 30
0.0
 11
-29.311131
 21
33.853059
 31
0.0
  0
LINE
  5
FB
100
AcDbEntity
  8
BODEN-3_8
 62
     7
100
AcDbLine
 10
-25.828828
 20
32.934079
 30
0.0
 11
-29.912128
 21
37.017379
 31
0.0
  0
LINE
  5
FA
100
AcDbEntity
  8
BODEN-3_8
 62
     7
100
AcDbLine
 10
-25.828828
 20
35.497403
 30
0.0
 11
-29.573819
 21
39.242394
 31
0.0
  0
LINE
  5
F9
100
AcDbEntity
  8
BODEN-3_8
 62
     7
100
AcDbLine
 10
-25.828828
 20
38.060554
 30
0.0
 11
-29.912128
 21
42.143853
 31
0.0
  0
LINE
  5
F8
100
AcDbEntity
  8
BODEN-3_8
 62
     7
100
AcDbLine
 10
-25.828828
 20
40.623705
 30
0.0
 11
-29.912128
 21
44.707176
 31
0.0
  0
LINE
  5
F7
100
AcDbEntity
  8
BODEN-3_8
 62
     7
100
AcDbLine
 10
-25.828828
 20
43.187028
 30
0.0
 11
-29.912128
 21
47.270327
 31
0.0
  0
LINE
  5
F6
100
AcDbEntity
  8
BODEN-3_8
 62
     7
100
AcDbLine
 10
-25.828828
 20
45.750179
 30
0.0
 11
-29.912128
 21
49.833478
 31
0.0
  0
LINE
  5
F5
100
AcDbEntity
  8
BODEN-3_8
 62
     7
100
AcDbLine
 10
-25.828828
 20
48.313502
 30
0.0
 11
-29.912128
 21
52.39663
 31
0.0
  0
LINE
  5
F4
100
AcDbEntity
  8
BODEN-3_8
 62
     7
100
AcDbLine
 10
-25.828828
 20
50.876653
 30
0.0
 11
-29.319571
 21
54.367569
 31
0.0
  0
LINE
  5
F3
100
AcDbEntity
  8
BODEN-3_8
 62
     7
100
AcDbLine
 10
-25.828828
 20
53.439804
 30
0.0
 11
-28.232644
 21
55.84362
 31
0.0
  0
LINE
  5
F2
100
AcDbEntity
  8
BODEN-3_8
 62
     7
100
AcDbLine
 10
20.021775
 20
-0.100252
 30
0.0
 11
19.839874
 21
0.081649
 31
0.0
  0
LINE
  5
F1
100
AcDbEntity
  8
BODEN-3_8
 62
     7
100
AcDbLine
 10
22.584926
 20
-0.100252
 30
0.0
 11
19.839874
 21
2.6448
 31
0.0
  0
LINE
  5
F0
100
AcDbEntity
  8
BODEN-3_8
 62
     7
100
AcDbLine
 10
23.923001
 20
1.124824
 30
0.0
 11
19.839874
 21
5.207951
 31
0.0
  0
LINE
  5
EF
100
AcDbEntity
  8
BODEN-3_8
 62
     7
100
AcDbLine
 10
23.923001
 20
3.687975
 30
0.0
 11
19.839874
 21
7.771102
 31
0.0
  0
LINE
  5
EE
100
AcDbEntity
  8
BODEN-3_8
 62
     7
100
AcDbLine
 10
23.64326
 20
6.530868
 30
0.0
 11
19.839874
 21
10.334253
 31
0.0
  0
LINE
  5
ED
100
AcDbEntity
  8
BODEN-3_8
 62
     7
100
AcDbLine
 10
23.923001
 20
8.814277
 30
0.0
 11
19.839874
 21
12.897748
 31
0.0
  0
LINE
  5
EC
100
AcDbEntity
  8
BODEN-3_8
 62
     7
100
AcDbLine
 10
23.613632
 20
11.686797
 30
0.0
 11
19.839874
 21
15.4609
 31
0.0
  0
LINE
  5
EB
100
AcDbEntity
  8
BODEN-3_8
 62
     7
100
AcDbLine
 10
23.923001
 20
13.940579
 30
0.0
 11
19.839874
 21
18.024395
 31
0.0
  0
LINE
  5
EA
100
AcDbEntity
  8
BODEN-3_8
 62
     7
100
AcDbLine
 10
23.380743
 20
17.046677
 30
0.0
 11
19.839874
 21
20.587374
 31
0.0
  0
LINE
  5
E9
100
AcDbEntity
  8
BODEN-3_8
 62
     7
100
AcDbLine
 10
23.923001
 20
19.06757
 30
0.0
 11
19.839874
 21
23.150525
 31
0.0
  0
LINE
  5
E8
100
AcDbEntity
  8
BODEN-3_8
 62
     7
100
AcDbLine
 10
23.365585
 20
22.187965
 30
0.0
 11
19.839874
 21
25.713848
 31
0.0
  0
LINE
  5
E7
100
AcDbEntity
  8
BODEN-3_8
 62
     7
100
AcDbLine
 10
23.923001
 20
24.1937
 30
0.0
 11
19.839874
 21
28.277171
 31
0.0
  0
LINE
  5
E6
100
AcDbEntity
  8
BODEN-3_8
 62
     7
100
AcDbLine
 10
23.923001
 20
26.756851
 30
0.0
 11
19.839874
 21
30.840323
 31
0.0
  0
LINE
  5
E5
100
AcDbEntity
  8
BODEN-3_8
 62
     7
100
AcDbLine
 10
23.923001
 20
29.320174
 30
0.0
 11
19.839874
 21
33.403474
 31
0.0
  0
LINE
  5
E4
100
AcDbEntity
  8
BODEN-3_8
 62
     7
100
AcDbLine
 10
23.923001
 20
31.883497
 30
0.0
 11
19.839874
 21
35.966625
 31
0.0
  0
LINE
  5
E3
100
AcDbEntity
  8
BODEN-3_8
 62
     7
100
AcDbLine
 10
23.619833
 20
34.749989
 30
0.0
 11
19.839874
 21
38.529948
 31
0.0
  0
LINE
  5
E2
100
AcDbEntity
  8
BODEN-3_8
 62
     7
100
AcDbLine
 10
23.923001
 20
37.0098
 30
0.0
 11
19.839874
 21
41.093271
 31
0.0
  0
LINE
  5
E1
100
AcDbEntity
  8
BODEN-3_8
 62
     7
100
AcDbLine
 10
23.329756
 20
40.166541
 30
0.0
 11
19.839874
 21
43.656422
 31
0.0
  0
LINE
  5
E0
100
AcDbEntity
  8
BODEN-3_8
 62
     7
100
AcDbLine
 10
23.923001
 20
42.136274
 30
0.0
 11
19.839874
 21
46.219573
 31
0.0
  0
LINE
  5
DF
100
AcDbEntity
  8
BODEN-3_8
 62
     7
100
AcDbLine
 10
23.923001
 20
44.699597
 30
0.0
 11
19.839874
 21
48.782897
 31
0.0
  0
LINE
  5
DE
100
AcDbEntity
  8
BODEN-3_8
 62
     7
100
AcDbLine
 10
23.923001
 20
47.262748
 30
0.0
 11
19.839874
 21
51.346048
 31
0.0
  0
LINE
  5
DD
100
AcDbEntity
  8
BODEN-3_8
 62
     7
100
AcDbLine
 10
23.923001
 20
49.825899
 30
0.0
 11
19.839874
 21
53.909371
 31
0.0
  0
LINE
  5
DC
100
AcDbEntity
  8
BODEN-3_8
 62
     7
100
AcDbLine
 10
23.923001
 20
52.389223
 30
0.0
 11
20.468949
 21
55.84362
 31
0.0
  0
LINE
  5
DB
100
AcDbEntity
  8
BODEN-3_8
 62
     7
100
AcDbLine
 10
23.752814
 20
55.123078
 30
0.0
 11
23.0321
 21
55.84362
 31
0.0
  0
LINE
  5
DA
100
AcDbEntity
  8
BODEN-3_8
 62
     7
100
AcDbLine
 10
-60.080312
 20
38.135829
 30
0.0
 11
-42.372349
 21
55.84362
 31
0.0
  0
LINE
  5
D9
100
AcDbEntity
  8
BODEN-3_8
 62
     7
100
AcDbLine
 10
-60.080312
 20
17.630276
 30
0.0
 11
-29.912128
 21
47.798116
 31
0.0
  0
LINE
  5
D8
100
AcDbEntity
  8
BODEN-3_8
 62
     7
100
AcDbLine
 10
-57.304943
 20
-0.100252
 30
0.0
 11
-29.307169
 21
27.897177
 31
0.0
  0
LINE
  5
D7
100
AcDbEntity
  8
BODEN-3_8
 62
     7
100
AcDbLine
 10
-36.799046
 20
-0.100252
 30
0.0
 11
-29.912128
 21
6.786494
 31
0.0
  0
LINE
  5
D6
100
AcDbEntity
  8
BODEN-3_8
 62
     7
100
AcDbLine
 10
23.391768
 20
39.584664
 30
0.0
 11
39.650551
 21
55.84362
 31
0.0
  0
LINE
  5
D5
100
AcDbEntity
  8
BODEN-3_8
 62
     7
100
AcDbLine
 10
23.923001
 20
19.610517
 30
0.0
 11
54.091358
 21
49.778357
 31
0.0
  0
LINE
  5
D4
100
AcDbEntity
  8
BODEN-3_8
 62
     7
100
AcDbLine
 10
24.718129
 20
-0.100252
 30
0.0
 11
54.091358
 21
29.272632
 31
0.0
  0
LINE
  5
D3
100
AcDbEntity
  8
BODEN-3_8
 62
     7
100
AcDbLine
 10
45.224027
 20
-0.100252
 30
0.0
 11
54.091358
 21
8.766734
 31
0.0
  0
LINE
  5
D2
100
AcDbEntity
  8
BODEN-3_8
 62
     7
100
AcDbLine
 10
-60.080312
 20
48.388605
 30
0.0
 11
-57.089797
 21
51.379121
 31
0.0
  0
LINE
  5
D1
100
AcDbEntity
  8
BODEN-3_8
 62
     7
100
AcDbLine
 10
-54.526646
 20
53.942272
 30
0.0
 11
-52.625298
 21
55.84362
 31
0.0
  0
LINE
  5
D0
100
AcDbEntity
  8
BODEN-3_8
 62
     7
100
AcDbLine
 10
-59.65312
 20
28.310072
 30
0.0
 11
-54.526646
 21
33.436546
 31
0.0
  0
LINE
  5
CF
100
AcDbEntity
  8
BODEN-3_8
 62
     7
100
AcDbLine
 10
-51.963495
 20
35.999698
 30
0.0
 11
-46.837021
 21
41.126172
 31
0.0
  0
LINE
  5
CE
100
AcDbEntity
  8
BODEN-3_8
 62
     7
100
AcDbLine
 10
-44.273697
 20
43.689495
 30
0.0
 11
-39.147395
 21
48.815797
 31
0.0
  0
LINE
  5
CD
100
AcDbEntity
  8
BODEN-3_8
 62
     7
100
AcDbLine
 10
-36.584072
 20
51.379121
 30
0.0
 11
-32.119573
 21
55.84362
 31
0.0
  0
LINE
  5
CC
100
AcDbEntity
  8
BODEN-3_8
 62
     7
100
AcDbLine
 10
-60.080312
 20
7.376983
 30
0.0
 11
-59.65312
 21
7.804175
 31
0.0
  0
LINE
  5
CB
100
AcDbEntity
  8
BODEN-3_8
 62
     7
100
AcDbLine
 10
-57.089797
 20
10.367326
 30
0.0
 11
-51.963495
 21
15.493972
 31
0.0
  0
LINE
  5
CA
100
AcDbEntity
  8
BODEN-3_8
 62
     7
100
AcDbLine
 10
-49.400172
 20
18.057123
 30
0.0
 11
-44.273697
 21
23.183598
 31
0.0
  0
LINE
  5
C9
100
AcDbEntity
  8
BODEN-3_8
 62
     7
100
AcDbLine
 10
-41.710546
 20
25.746749
 30
0.0
 11
-36.584072
 21
30.873395
 31
0.0
  0
LINE
  5
C8
100
AcDbEntity
  8
BODEN-3_8
 62
     7
100
AcDbLine
 10
-34.020921
 20
33.436546
 30
0.0
 11
-29.912128
 21
37.545167
 31
0.0
  0
LINE
  5
C7
100
AcDbEntity
  8
BODEN-3_8
 62
     7
100
AcDbLine
 10
-46.837021
 20
0.114722
 30
0.0
 11
-41.710546
 21
5.241024
 31
0.0
  0
LINE
  5
C6
100
AcDbEntity
  8
BODEN-3_8
 62
     7
100
AcDbLine
 10
-39.147395
 20
7.804175
 30
0.0
 11
-34.020921
 21
12.930477
 31
0.0
  0
LINE
  5
C5
100
AcDbEntity
  8
BODEN-3_8
 62
     7
100
AcDbLine
 10
-31.457598
 20
15.493972
 30
0.0
 11
-29.555044
 21
17.396699
 31
0.0
  0
LINE
  5
C4
100
AcDbEntity
  8
BODEN-3_8
 62
     7
100
AcDbLine
 10
24.933103
 20
51.379121
 30
0.0
 11
29.397947
 21
55.84362
 31
0.0
  0
LINE
  5
C3
100
AcDbEntity
  8
BODEN-3_8
 62
     7
100
AcDbLine
 10
23.923001
 20
29.863121
 30
0.0
 11
24.933103
 21
30.873395
 31
0.0
  0
LINE
  5
C2
100
AcDbEntity
  8
BODEN-3_8
 62
     7
100
AcDbLine
 10
27.496599
 20
33.436546
 30
0.0
 11
32.622901
 21
38.562849
 31
0.0
  0
LINE
  5
C1
100
AcDbEntity
  8
BODEN-3_8
 62
     7
100
AcDbLine
 10
35.186397
 20
41.126172
 30
0.0
 11
40.312699
 21
46.252646
 31
0.0
  0
LINE
  5
C0
100
AcDbEntity
  8
BODEN-3_8
 62
     7
100
AcDbLine
 10
42.87585
 20
48.815797
 30
0.0
 11
48.002152
 21
53.942272
 31
0.0
  0
LINE
  5
BF
100
AcDbEntity
  8
BODEN-3_8
 62
     7
100
AcDbLine
 10
23.923001
 20
9.357224
 30
0.0
 11
27.496599
 21
12.930477
 31
0.0
  0
LINE
  5
BE
100
AcDbEntity
  8
BODEN-3_8
 62
     7
100
AcDbLine
 10
30.05975
 20
15.493972
 30
0.0
 11
35.186397
 21
20.620447
 31
0.0
  0
LINE
  5
BD
100
AcDbEntity
  8
BODEN-3_8
 62
     7
100
AcDbLine
 10
37.749548
 20
23.183598
 30
0.0
 11
42.87585
 21
28.310072
 31
0.0
  0
LINE
  5
BC
100
AcDbEntity
  8
BODEN-3_8
 62
     7
100
AcDbLine
 10
45.439001
 20
30.873395
 30
0.0
 11
50.565647
 21
35.999698
 31
0.0
  0
LINE
  5
BB
100
AcDbEntity
  8
BODEN-3_8
 62
     7
100
AcDbLine
 10
53.128798
 20
38.562849
 30
0.0
 11
54.091358
 21
39.525408
 31
0.0
  0
LINE
  5
BA
100
AcDbEntity
  8
BODEN-3_8
 62
     7
100
AcDbLine
 10
34.971423
 20
-0.100252
 30
0.0
 11
37.749548
 21
2.677873
 31
0.0
  0
LINE
  5
B9
100
AcDbEntity
  8
BODEN-3_8
 62
     7
100
AcDbLine
 10
40.312699
 20
5.241024
 30
0.0
 11
45.439001
 21
10.367326
 31
0.0
  0
LINE
  5
B8
100
AcDbEntity
  8
BODEN-3_8
 62
     7
100
AcDbLine
 10
48.002152
 20
12.930477
 30
0.0
 11
53.128798
 21
18.057123
 31
0.0
  0
LINE
  5
B7
100
AcDbEntity
  8
BODEN-3_8
  6
AI9-LType2
 62
     7
100
AcDbLine
 10
-20.849115
 20
1.567863
 30
0.0
 11
-20.849115
 21
15.061613
 31
0.0
  0
LINE
  5
B6
100
AcDbEntity
  8
BODEN-3_8
  6
AI9-LType2
 62
     7
100
AcDbLine
 10
14.772139
 20
1.656057
 30
0.0
 11
14.772139
 21
14.863175
 31
0.0
  0
LINE
  5
B4
100
AcDbEntity
  8
BODEN-3_8
  6
AI9-LType1
 62
     7
100
AcDbLine
 10
-2.994563
 20
66.15858
 30
0.0
 11
-2.994563
 21
-15.399232
 31
0.0
  0
SPLINE
  5
B2
100
AcDbEntity
  8
BODEN-3_8
 62
     7
100
AcDbSpline
210
0.0
220
0.0
230
1.0
 70
     8
 71
     3
 72
    11
 73
     7
 74
     0
 42
0.00000001
 43
0.00000001
 40
0.0
 40
0.0
 40
0.0
 40
0.0
 40
1.0
 40
1.0
 40
1.0
 40
2.0
 40
2.0
 40
2.0
 40
2.0
 10
23.923001437717012
 20
41.047795952690969
 30
0.0
 10
23.344569905598956
 20
40.71362169053819
 30
0.0
 10
23.146132405598955
 20
39.973787434895833
 30
0.0
 10
23.480306667751734
 20
39.395183648003467
 30
0.0
 10
23.586415608723957
 20
39.211215549045136
 30
0.0
 10
23.739033338758677
 20
39.058597819010416
 30
0.0
 10
23.923001437717012
 20
38.952316623263883
 30
0.0
  0
LINE
  5
B1
100
AcDbEntity
  8
BODEN-3_8
 62
     7
100
AcDbLine
 10
23.923001
 20
32.902901
 30
0.0
 11
23.923001
 21
28.949137
 31
0.0
  0
SPLINE
  5
B0
100
AcDbEntity
  8
BODEN-3_8
 62
     7
100
AcDbSpline
210
0.0
220
0.0
230
1.0
 70
     8
 71
     3
 72
    11
 73
     7
 74
     0
 42
0.00000001
 43
0.00000001
 40
0.0
 40
0.0
 40
0.0
 40
0.0
 40
1.0
 40
1.0
 40
1.0
 40
2.0
 40
2.0
 40
2.0
 40
2.0
 10
23.923001437717012
 20
34.998552788628466
 30
0.0
 10
23.344569905598956
 20
34.664378526475694
 30
0.0
 10
23.146132405598955
 20
33.924372016059024
 30
0.0
 10
23.480306667751734
 20
33.345768229166666
 30
0.0
 10
23.586415608723957
 20
33.161800130208327
 30
0.0
 10
23.739033338758677
 20
33.009010145399301
 30
0.0
 10
23.923001437717012
 20
32.902901204427081
 30
0.0
  0
SPLINE
  5
AF
100
AcDbEntity
  8
BODEN-3_8
 62
     7
100
AcDbSpline
210
0.0
220
0.0
230
1.0
 70
     8
 71
     3
 72
    11
 73
     7
 74
     0
 42
0.00000001
 43
0.00000001
 40
0.0
 40
0.0
 40
0.0
 40
0.0
 40
1.0
 40
1.0
 40
1.0
 40
2.0
 40
2.0
 40
2.0
 40
2.0
 10
23.923001437717012
 20
22.899721950954859
 30
0.0
 10
23.344569905598956
 20
22.565547688802081
 30
0.0
 10
23.146132405598955
 20
21.82571343315972
 30
0.0
 10
23.480306667751734
 20
21.247109646267358
 30
0.0
 10
23.586415608723957
 20
21.063141547309026
 30
0.0
 10
23.739033338758677
 20
20.910351562499997
 30
0.0
 10
23.923001437717012
 20
20.804070366753471
 30
0.0
  0
LINE
  5
AE
100
AcDbEntity
  8
BODEN-3_8
 62
     7
100
AcDbLine
 10
23.923001
 20
38.952317
 30
0.0
 11
23.923001
 21
34.998553
 31
0.0
  0
SPLINE
  5
AD
100
AcDbEntity
  8
BODEN-3_8
 62
     7
100
AcDbSpline
210
0.0
220
0.0
230
1.0
 70
     8
 71
     3
 72
    11
 73
     7
 74
     0
 42
0.00000001
 43
0.00000001
 40
0.0
 40
0.0
 40
0.0
 40
0.0
 40
1.0
 40
1.0
 40
1.0
 40
2.0
 40
2.0
 40
2.0
 40
2.0
 10
23.923001437717012
 20
47.09721137152777
 30
0.0
 10
23.344569905598956
 20
46.763209364149304
 30
0.0
 10
23.146132405598955
 20
46.023202853732634
 30
0.0
 10
23.480306667751734
 20
45.44442681206597
 30
0.0
 10
23.586415608723957
 20
45.260458713107631
 30
0.0
 10
23.739033338758677
 20
45.107840983072911
 30
0.0
 10
23.923001437717012
 20
45.001732042100691
 30
0.0
  0
LINE
  5
AC
100
AcDbEntity
  8
BODEN-3_8
 62
     7
100
AcDbLine
 10
23.923001
 20
55.84362
 30
0.0
 11
23.923001
 21
55.242106
 31
0.0
  0
LINE
  5
AB
100
AcDbEntity
  8
BODEN-3_8
 62
     7
100
AcDbLine
 10
23.923001
 20
45.001732
 30
0.0
 11
23.923001
 21
41.047796
 31
0.0
  0
SPLINE
  5
AA
100
AcDbEntity
  8
BODEN-3_8
 62
     7
100
AcDbSpline
210
0.0
220
0.0
230
1.0
 70
     8
 71
     3
 72
    11
 73
     7
 74
     0
 42
0.00000001
 43
0.00000001
 40
0.0
 40
0.0
 40
0.0
 40
0.0
 40
1.0
 40
1.0
 40
1.0
 40
2.0
 40
2.0
 40
2.0
 40
2.0
 10
23.923001437717012
 20
28.949137369791664
 30
0.0
 10
23.344569905598956
 20
28.615135362413191
 30
0.0
 10
23.146132405598955
 20
27.875128851996525
 30
0.0
 10
23.480306667751734
 20
27.296352810329857
 30
0.0
 10
23.586415608723957
 20
27.112384711371526
 30
0.0
 10
23.739033338758677
 20
26.959766981336802
 30
0.0
 10
23.923001437717012
 20
26.853658040364582
 30
0.0
  0
LINE
  5
A9
100
AcDbEntity
  8
BODEN-3_8
 62
     7
100
AcDbLine
 10
23.923001
 20
26.853658
 30
0.0
 11
23.923001
 21
22.899722
 31
0.0
  0
LINE
  5
A8
100
AcDbEntity
  8
BODEN-3_8
 62
     7
100
AcDbLine
 10
23.923001
 20
15.614895
 30
0.0
 11
23.923001
 21
11.942424
 31
0.0
  0
LINE
  5
A7
100
AcDbEntity
  8
BODEN-3_8
 62
     7
100
AcDbLine
 10
23.923001
 20
20.80407
 30
0.0
 11
23.923001
 21
17.710891
 31
0.0
  0
SPLINE
  5
A6
100
AcDbEntity
  8
BODEN-3_8
 62
     7
100
AcDbSpline
210
0.0
220
0.0
230
1.0
 70
     8
 71
     3
 72
    11
 73
     7
 74
     0
 42
0.00000001
 43
0.00000001
 40
0.0
 40
0.0
 40
0.0
 40
0.0
 40
1.0
 40
1.0
 40
1.0
 40
2.0
 40
2.0
 40
2.0
 40
2.0
 10
23.923001437717012
 20
11.942423502604166
 30
0.0
 10
23.344569905598956
 20
11.608249240451388
 30
0.0
 10
23.146132405598955
 20
10.868242730034721
 30
0.0
 10
23.480306667751734
 20
10.289466688368055
 30
0.0
 10
23.586415608723957
 20
10.106187608506943
 30
0.0
 10
23.739033338758677
 20
9.9532253689236097
 30
0.0
 10
23.923001437717012
 20
9.8471164279513879
 30
0.0
  0
SPLINE
  5
A5
100
AcDbEntity
  8
BODEN-3_8
 62
     7
100
AcDbSpline
210
0.0
220
0.0
230
1.0
 70
     8
 71
     3
 72
    11
 73
     7
 74
     0
 42
0.00000001
 43
0.00000001
 40
0.0
 40
0.0
 40
0.0
 40
0.0
 40
1.0
 40
1.0
 40
1.0
 40
2.0
 40
2.0
 40
2.0
 40
2.0
 10
23.923001437717012
 20
17.71089138454861
 30
0.0
 10
23.344569905598956
 20
17.376717122395831
 30
0.0
 10
23.146132405598955
 20
16.636710611979165
 30
0.0
 10
23.480306667751734
 20
16.057934570312497
 30
0.0
 10
23.586415608723957
 20
15.873966471354166
 30
0.0
 10
23.739033338758677
 20
15.721004231770833
 30
0.0
 10
23.923001437717012
 20
15.614895290798609
 30
0.0
  0
SPLINE
  5
A4
100
AcDbEntity
  8
BODEN-3_8
 62
     7
100
AcDbSpline
210
0.0
220
0.0
230
1.0
 70
     8
 71
     3
 72
    11
 73
     7
 74
     0
 42
0.00000001
 43
0.00000001
 40
0.0
 40
0.0
 40
0.0
 40
0.0
 40
1.0
 40
1.0
 40
1.0
 40
2.0
 40
2.0
 40
2.0
 40
2.0
 10
23.923001437717012
 20
6.7534206814236102
 30
0.0
 10
23.344569905598956
 20
6.4192464192708325
 30
0.0
 10
23.146132405598955
 20
5.6792399088541661
 30
0.0
 10
23.480306667751734
 20
5.1004638671874991
 30
0.0
 10
23.586415608723957
 20
4.9164957682291659
 30
0.0
 10
23.739033338758677
 20
4.7642225477430555
 30
0.0
 10
23.923001437717012
 20
4.6581136067708329
 30
0.0
  0
LINE
  5
A3
100
AcDbEntity
  8
BODEN-3_8
 62
     7
100
AcDbLine
 10
23.923001
 20
-0.100252
 30
0.0
 11
23.923001
 21
4.658114
 31
0.0
  0
LINE
  5
A2
100
AcDbEntity
  8
BODEN-3_8
 62
     7
100
AcDbLine
 10
23.923001
 20
9.847116
 30
0.0
 11
23.923001
 21
6.753421
 31
0.0
  0
SPLINE
  5
A1
100
AcDbEntity
  8
BODEN-3_8
 62
     7
100
AcDbSpline
210
0.0
220
0.0
230
1.0
 70
     8
 71
     3
 72
    11
 73
     7
 74
     0
 42
0.00000001
 43
0.00000001
 40
0.0
 40
0.0
 40
0.0
 40
0.0
 40
1.0
 40
1.0
 40
1.0
 40
2.0
 40
2.0
 40
2.0
 40
2.0
 10
23.923001437717012
 20
55.242106119791664
 30
0.0
 10
23.344569905598956
 20
54.908104112413191
 30
0.0
 10
23.146132405598955
 20
54.168097601996521
 30
0.0
 10
23.480306667751734
 20
53.589321560329857
 30
0.0
 10
23.586415608723957
 20
53.405525716145831
 30
0.0
 10
23.739033338758677
 20
53.252735731336799
 30
0.0
 10
23.923001437717012
 20
53.146626790364579
 30
0.0
  0
LINE
  5
A0
100
AcDbEntity
  8
BODEN-3_8
 62
     7
100
AcDbLine
 10
23.923001
 20
53.146627
 30
0.0
 11
23.923001
 21
47.097211
 31
0.0
  0
SPLINE
  5
9F
100
AcDbEntity
  8
BODEN-3_8
 62
     7
100
AcDbSpline
210
0.0
220
0.0
230
1.0
 70
     8
 71
     3
 72
    11
 73
     7
 74
     0
 42
0.00000001
 43
0.00000001
 40
0.0
 40
0.0
 40
0.0
 40
0.0
 40
1.0
 40
1.0
 40
1.0
 40
2.0
 40
2.0
 40
2.0
 40
2.0
 10
-29.912127685546871
 20
38.952316623263883
 30
0.0
 10
-29.333351643880206
 20
39.286318630642356
 30
0.0
 10
-29.135258653428817
 20
40.026325141059026
 30
0.0
 10
-29.46926066080729
 20
40.60510118272569
 30
0.0
 10
-29.575541856553816
 20
40.788897026909716
 30
0.0
 10
-29.728159586588539
 20
40.941687011718749
 30
0.0
 10
-29.912127685546871
 20
41.047795952690969
 30
0.0
  0
LINE
  5
9E
100
AcDbEntity
  8
BODEN-3_8
 62
     7
100
AcDbLine
 10
-29.912128
 20
32.902901
 30
0.0
 11
-29.912128
 21
28.949137
 31
0.0
  0
SPLINE
  5
9D
100
AcDbEntity
  8
BODEN-3_8
 62
     7
100
AcDbSpline
210
0.0
220
0.0
230
1.0
 70
     8
 71
     3
 72
    11
 73
     7
 74
     0
 42
0.00000001
 43
0.00000001
 40
0.0
 40
0.0
 40
0.0
 40
0.0
 40
1.0
 40
1.0
 40
1.0
 40
2.0
 40
2.0
 40
2.0
 40
2.0
 10
-29.912127685546871
 20
32.902901204427081
 30
0.0
 10
-29.333351643880206
 20
33.23707546657986
 30
0.0
 10
-29.135258653428817
 20
33.977081976996523
 30
0.0
 10
-29.46926066080729
 20
34.555513509114583
 30
0.0
 10
-29.575541856553816
 20
34.739481608072914
 30
0.0
 10
-29.728159586588539
 20
34.89227159288194
 30
0.0
 10
-29.912127685546871
 20
34.998552788628466
 30
0.0
  0
SPLINE
  5
9C
100
AcDbEntity
  8
BODEN-3_8
 62
     7
100
AcDbSpline
210
0.0
220
0.0
230
1.0
 70
     8
 71
     3
 72
    11
 73
     7
 74
     0
 42
0.00000001
 43
0.00000001
 40
0.0
 40
0.0
 40
0.0
 40
0.0
 40
1.0
 40
1.0
 40
1.0
 40
2.0
 40
2.0
 40
2.0
 40
2.0
 10
-29.912127685546871
 20
20.804070366753471
 30
0.0
 10
-29.333351643880206
 20
21.138244628906246
 30
0.0
 10
-29.135258653428817
 20
21.878251139322916
 30
0.0
 10
-29.46926066080729
 20
22.457027180989581
 30
0.0
 10
-29.575541856553816
 20
22.64082302517361
 30
0.0
 10
-29.728159586588539
 20
22.793613009982636
 30
0.0
 10
-29.912127685546871
 20
22.899721950954859
 30
0.0
  0
LINE
  5
9B
100
AcDbEntity
  8
BODEN-3_8
 62
     7
100
AcDbLine
 10
-29.912128
 20
38.952317
 30
0.0
 11
-29.912128
 21
34.998553
 31
0.0
  0
SPLINE
  5
9A
100
AcDbEntity
  8
BODEN-3_8
 62
     7
100
AcDbSpline
210
0.0
220
0.0
230
1.0
 70
     8
 71
     3
 72
    11
 73
     7
 74
     0
 42
0.00000001
 43
0.00000001
 40
0.0
 40
0.0
 40
0.0
 40
0.0
 40
1.0
 40
1.0
 40
1.0
 40
2.0
 40
2.0
 40
2.0
 40
2.0
 10
-29.912127685546871
 20
45.001732042100691
 30
0.0
 10
-29.333351643880206
 20
45.335734049479164
 30
0.0
 10
-29.135258653428817
 20
46.075568305121521
 30
0.0
 10
-29.46926066080729
 20
46.654344346788193
 30
0.0
 10
-29.575541856553816
 20
46.838312445746524
 30
0.0
 10
-29.728159586588539
 20
46.990930175781244
 30
0.0
 10
-29.912127685546871
 20
47.09721137152777
 30
0.0
  0
LINE
  5
99
100
AcDbEntity
  8
BODEN-3_8
 62
     7
100
AcDbLine
 10
-29.912128
 20
55.84362
 30
0.0
 11
-29.912128
 21
55.242106
 31
0.0
  0
LINE
  5
98
100
AcDbEntity
  8
BODEN-3_8
 62
     7
100
AcDbLine
 10
-29.912128
 20
53.146627
 30
0.0
 11
-29.912128
 21
47.097211
 31
0.0
  0
LINE
  5
97
100
AcDbEntity
  8
BODEN-3_8
 62
     7
100
AcDbLine
 10
-29.912128
 20
45.001732
 30
0.0
 11
-29.912128
 21
41.047796
 31
0.0
  0
SPLINE
  5
96
100
AcDbEntity
  8
BODEN-3_8
 62
     7
100
AcDbSpline
210
0.0
220
0.0
230
1.0
 70
     8
 71
     3
 72
    11
 73
     7
 74
     0
 42
0.00000001
 43
0.00000001
 40
0.0
 40
0.0
 40
0.0
 40
0.0
 40
1.0
 40
1.0
 40
1.0
 40
2.0
 40
2.0
 40
2.0
 40
2.0
 10
-29.912127685546871
 20
26.853658040364582
 30
0.0
 10
-29.333351643880206
 20
27.187660047743051
 30
0.0
 10
-29.135258653428817
 20
27.927494303385416
 30
0.0
 10
-29.46926066080729
 20
28.50627034505208
 30
0.0
 10
-29.575541856553816
 20
28.690238444010415
 30
0.0
 10
-29.728159586588539
 20
28.842856174045135
 30
0.0
 10
-29.912127685546871
 20
28.949137369791664
 30
0.0
  0
LINE
  5
95
100
AcDbEntity
  8
BODEN-3_8
 62
     7
100
AcDbLine
 10
-29.912128
 20
26.853658
 30
0.0
 11
-29.912128
 21
22.899722
 31
0.0
  0
LINE
  5
94
100
AcDbEntity
  8
BODEN-3_8
 62
     7
100
AcDbLine
 10
-29.912128
 20
15.614895
 30
0.0
 11
-29.912128
 21
11.942424
 31
0.0
  0
LINE
  5
93
100
AcDbEntity
  8
BODEN-3_8
 62
     7
100
AcDbLine
 10
-29.912128
 20
20.80407
 30
0.0
 11
-29.912128
 21
17.710891
 31
0.0
  0
SPLINE
  5
92
100
AcDbEntity
  8
BODEN-3_8
 62
     7
100
AcDbSpline
210
0.0
220
0.0
230
1.0
 70
     8
 71
     3
 72
    11
 73
     7
 74
     0
 42
0.00000001
 43
0.00000001
 40
0.0
 40
0.0
 40
0.0
 40
0.0
 40
1.0
 40
1.0
 40
1.0
 40
2.0
 40
2.0
 40
2.0
 40
2.0
 10
-29.912127685546871
 20
9.8471164279513879
 30
0.0
 10
-29.333351643880206
 20
10.181290690104166
 30
0.0
 10
-29.135258653428817
 20
10.921297200520833
 30
0.0
 10
-29.46926066080729
 20
11.499384223090276
 30
0.0
 10
-29.575541856553816
 20
11.683352322048609
 30
0.0
 10
-29.728159586588539
 20
11.836314561631943
 30
0.0
 10
-29.912127685546871
 20
11.942423502604166
 30
0.0
  0
SPLINE
  5
91
100
AcDbEntity
  8
BODEN-3_8
 62
     7
100
AcDbSpline
210
0.0
220
0.0
230
1.0
 70
     8
 71
     3
 72
    11
 73
     7
 74
     0
 42
0.00000001
 43
0.00000001
 40
0.0
 40
0.0
 40
0.0
 40
0.0
 40
1.0
 40
1.0
 40
1.0
 40
2.0
 40
2.0
 40
2.0
 40
2.0
 10
-29.912127685546871
 20
15.614895290798609
 30
0.0
 10
-29.333351643880206
 20
15.949069552951388
 30
0.0
 10
-29.135258653428817
 20
16.689076063368056
 30
0.0
 10
-29.46926066080729
 20
17.26785210503472
 30
0.0
 10
-29.575541856553816
 20
17.451820203993055
 30
0.0
 10
-29.728159586588539
 20
17.604437934027775
 30
0.0
 10
-29.912127685546871
 20
17.71089138454861
 30
0.0
  0
SPLINE
  5
90
100
AcDbEntity
  8
BODEN-3_8
 62
     7
100
AcDbSpline
210
0.0
220
0.0
230
1.0
 70
     8
 71
     3
 72
    11
 73
     7
 74
     0
 42
0.00000001
 43
0.00000001
 40
0.0
 40
0.0
 40
0.0
 40
0.0
 40
1.0
 40
1.0
 40
1.0
 40
2.0
 40
2.0
 40
2.0
 40
2.0
 10
-29.912127685546871
 20
4.6581136067708329
 30
0.0
 10
-29.333351643880206
 20
4.9922878689236105
 30
0.0
 10
-29.135258653428817
 20
5.731605360243055
 30
0.0
 10
-29.46926066080729
 20
6.310381401909722
 30
0.0
 10
-29.575541856553816
 20
6.4943495008680552
 30
0.0
 10
-29.728159586588539
 20
6.6473117404513884
 30
0.0
 10
-29.912127685546871
 20
6.7534206814236102
 30
0.0
  0
LINE
  5
8F
100
AcDbEntity
  8
BODEN-3_8
 62
     7
100
AcDbLine
 10
-29.912128
 20
-0.100252
 30
0.0
 11
-29.912128
 21
4.658114
 31
0.0
  0
LINE
  5
8E
100
AcDbEntity
  8
BODEN-3_8
 62
     7
100
AcDbLine
 10
-29.912128
 20
9.847116
 30
0.0
 11
-29.912128
 21
6.753421
 31
0.0
  0
SPLINE
  5
8D
100
AcDbEntity
  8
BODEN-3_8
 62
     7
100
AcDbSpline
210
0.0
220
0.0
230
1.0
 70
     8
 71
     3
 72
    11
 73
     7
 74
     0
 42
0.00000001
 43
0.00000001
 40
0.0
 40
0.0
 40
0.0
 40
0.0
 40
1.0
 40
1.0
 40
1.0
 40
2.0
 40
2.0
 40
2.0
 40
2.0
 10
-29.912127685546871
 20
53.146626790364579
 30
0.0
 10
-29.333351643880206
 20
53.480628797743051
 30
0.0
 10
-29.135258653428817
 20
54.220635308159714
 30
0.0
 10
-29.46926066080729
 20
54.79923909505208
 30
0.0
 10
-29.575541856553816
 20
54.983207194010411
 30
0.0
 10
-29.728159586588539
 20
55.135824924045131
 30
0.0
 10
-29.912127685546871
 20
55.242106119791664
 30
0.0
  0
LINE
  5
8C
100
AcDbEntity
  8
BODEN-3_8
 62
     7
100
AcDbLine
 10
-28.296895
 20
5.322328
 30
0.0
 11
-34.046242
 21
-37.196351
 31
0.0
  0
LINE
  5
8B
100
AcDbEntity
  8
BODEN-3_8
 62
     7
100
AcDbLine
 10
14.772139
 20
5.387096
 30
0.0
 11
29.672177
 21
-33.17937
 31
0.0
  0
MTEXT
  5
8A
100
AcDbEntity
  8
BODEN-3_8
 62
     7
100
AcDbMText
 10
-59.776627
 20
-36.291013
 30
0.0
 40
5.774636
 41
0.0
 71
     1
 72
     2
  1
\fArial|b0|i0;\H5.7746;\C7;\U+0046\U+0075\U+0074\U+0074\U+0065\U+0072\U+0072\U+006F\U+0068\U+0072
  7
STD
210
0.0
220
0.0
230
1.0
 73
     1
 44
1.0
  0
LINE
  5
89
100
AcDbEntity
  8
BODEN-3_8
 62
     7
100
AcDbLine
 10
-60.080312
 20
55.84362
 30
0.0
 11
-15.553314
 21
55.84362
 31
0.0
  0
LINE
  5
88
100
AcDbEntity
  8
BODEN-3_8
 62
     7
100
AcDbLine
 10
9.564532
 20
55.84362
 30
0.0
 11
54.091358
 21
55.84362
 31
0.0
  0
LINE
  5
87
100
AcDbEntity
  8
BODEN-3_8
 62
     7
100
AcDbLine
 10
54.091358
 20
-0.100252
 30
0.0
 11
9.564532
 21
-0.100252
 31
0.0
  0
LINE
  5
86
100
AcDbEntity
  8
BODEN-3_8
 62
     7
100
AcDbLine
 10
-15.553314
 20
-0.100252
 30
0.0
 11
-60.080312
 21
-0.100252
 31
0.0
  0
LINE
  5
85
100
AcDbEntity
  8
BODEN-3_8
 62
     7
100
AcDbLine
 10
19.839874
 20
50.7106
 30
0.0
 11
19.839874
 21
-0.100252
 31
0.0
  0
LINE
  5
84
100
AcDbEntity
  8
BODEN-3_8
 62
     7
100
AcDbLine
 10
-15.553314
 20
3.658347
 30
0.0
 11
-15.553314
 21
-11.209307
 31
0.0
  0
LINE
  5
83
100
AcDbEntity
  8
BODEN-3_8
 62
     7
100
AcDbLine
 10
-15.553314
 20
61.817243
 30
0.0
 11
-15.553314
 21
11.879034
 31
0.0
  0
LINE
  5
82
100
AcDbEntity
  8
BODEN-3_8
 62
     7
100
AcDbLine
 10
9.564532
 20
61.817243
 30
0.0
 11
9.564532
 21
11.879034
 31
0.0
  0
LINE
  5
81
100
AcDbEntity
  8
BODEN-3_8
 62
     7
100
AcDbLine
 10
9.564532
 20
3.658347
 30
0.0
 11
9.564532
 21
-11.209307
 31
0.0
  0
SPLINE
  5
80
100
AcDbEntity
  8
BODEN-3_8
 62
     7
100
AcDbSpline
210
0.0
220
0.0
230
1.0
 70
     8
 71
     3
 72
     8
 73
     4
 74
     0
 42
0.00000001
 43
0.00000001
 40
0.0
 40
0.0
 40
0.0
 40
0.0
 40
1.0
 40
1.0
 40
1.0
 40
1.0
 10
-0.2067918565538194
 20
61.89596354166666
 30
0.0
 10
-4.5441670735677082
 20
63.400264485677077
 30
0.0
 10
-9.1316562228732625
 20
64.049664984809027
 30
0.0
 10
-13.716044786241318
 20
63.808852810329853
 30
0.0
  0
SPLINE
  5
7F
100
AcDbEntity
  8
BODEN-3_8
 62
     7
100
AcDbSpline
210
0.0
220
0.0
230
1.0
 70
     8
 71
     3
 72
     8
 73
     4
 74
     0
 42
0.00000001
 43
0.00000001
 40
0.0
 40
0.0
 40
0.0
 40
0.0
 40
1.0
 40
1.0
 40
1.0
 40
1.0
 10
-6.8069057888454854
 20
60.304846191406241
 30
0.0
 10
-4.5848192003038193
 20
60.739961751302076
 30
0.0
 10
-2.3830586751302083
 20
61.270678710937496
 30
0.0
 10
-0.2067918565538194
 20
61.89596354166666
 30
0.0
  0
SPLINE
  5
7E
100
AcDbEntity
  8
BODEN-3_8
 62
     7
100
AcDbSpline
210
0.0
220
0.0
230
1.0
 70
     8
 71
     3
 72
     8
 73
     4
 74
     0
 42
0.00000001
 43
0.00000001
 40
0.0
 40
0.0
 40
0.0
 40
0.0
 40
1.0
 40
1.0
 40
1.0
 40
1.0
 10
-13.754285346137152
 20
59.829250759548607
 30
0.0
 10
-11.280879041883679
 20
59.700920952690964
 30
0.0
 10
-8.8014438205295136
 20
59.88953993055555
 30
0.0
 10
-6.3759243435329855
 20
60.390456814236103
 30
0.0
  0
SPLINE
  5
7D
100
AcDbEntity
  8
BODEN-3_8
 62
     7
100
AcDbSpline
210
0.0
220
0.0
230
1.0
 70
     8
 71
     3
 72
     8
 73
     4
 74
     0
 42
0.00000001
 43
0.00000001
 40
0.0
 40
0.0
 40
0.0
 40
0.0
 40
1.0
 40
1.0
 40
1.0
 40
1.0
 10
-0.2067918565538194
 20
61.89596354166666
 30
0.0
 10
-4.5937764485677075
 20
62.810980902777771
 30
0.0
 10
-9.09186537000868
 20
63.07298041449652
 30
0.0
 10
-13.555331081814234
 20
62.673693847656246
 30
0.0
  0
SPLINE
  5
7C
100
AcDbEntity
  8
BODEN-3_8
 62
     7
100
AcDbSpline
210
0.0
220
0.0
230
1.0
 70
     8
 71
     3
 72
     8
 73
     4
 74
     0
 42
0.00000001
 43
0.00000001
 40
0.0
 40
0.0
 40
0.0
 40
0.0
 40
1.0
 40
1.0
 40
1.0
 40
1.0
 10
-13.555331081814234
 20
60.961136881510413
 30
0.0
 10
-9.08411390516493
 20
60.649011230468744
 30
0.0
 10
-4.5910203721788188
 20
60.963892957899297
 30
0.0
 10
-0.2067918565538194
 20
61.89596354166666
 30
0.0
  0
SPLINE
  5
7B
100
AcDbEntity
  8
BODEN-3_8
 62
     7
100
AcDbSpline
210
0.0
220
0.0
230
1.0
 70
     8
 71
     3
 72
    11
 73
     7
 74
     0
 42
0.00000001
 43
0.00000001
 40
0.0
 40
0.0
 40
0.0
 40
0.0
 40
1.0
 40
1.0
 40
1.0
 40
2.0
 40
2.0
 40
2.0
 40
2.0
 10
-13.555331081814234
 20
62.673693847656246
 30
0.0
 10
-14.028170437282984
 20
62.673693847656246
 30
0.0
 10
-14.411609564887151
 20
62.290254720052076
 30
0.0
 10
-14.411609564887151
 20
61.81724310980902
 30
0.0
 10
-14.411609564887151
 20
61.34440375434027
 30
0.0
 10
-14.028170437282984
 20
60.961136881510413
 30
0.0
 10
-13.555331081814234
 20
60.961136881510413
 30
0.0
  0
SPLINE
  5
7A
100
AcDbEntity
  8
BODEN-3_8
 62
     7
100
AcDbSpline
210
0.0
220
0.0
230
1.0
 70
     8
 71
     3
 72
    11
 73
     7
 74
     0
 42
0.00000001
 43
0.00000001
 40
0.0
 40
0.0
 40
0.0
 40
0.0
 40
1.0
 40
1.0
 40
1.0
 40
2.0
 40
2.0
 40
2.0
 40
2.0
 10
-13.597533501519097
 20
63.814881727430553
 30
0.0
 10
-14.700825330946179
 20
63.791627332899303
 30
0.0
 10
-15.576224093967012
 20
62.878332519531241
 30
0.0
 10
-15.552969699435762
 20
61.775040690104163
 30
0.0
 10
-15.529887559678818
 20
60.685873752170131
 30
0.0
 10
-14.638641357421873
 20
59.815987141927081
 30
0.0
 10
-13.549129909939236
 20
59.819432237413189
 30
0.0
  0
SPLINE
  5
79
100
AcDbEntity
  8
BODEN-3_8
 62
     7
100
AcDbSpline
210
0.0
220
0.0
230
1.0
 70
     8
 71
     3
 72
     8
 73
     4
 74
     0
 42
0.00000001
 43
0.00000001
 40
0.0
 40
0.0
 40
0.0
 40
0.0
 40
1.0
 40
1.0
 40
1.0
 40
1.0
 10
-0.2067918565538194
 20
61.89596354166666
 30
0.0
 10
2.1954732259114582
 20
62.430125596788187
 30
0.0
 10
4.581201850043402
 20
63.037495930989579
 30
0.0
 10
6.9466044108072911
 20
63.716868760850687
 30
0.0
  0
LINE
  5
78
100
AcDbEntity
  8
BODEN-3_8
 62
     7
100
AcDbLine
 10
-25.828828
 20
5.484937
 30
0.0
 11
19.839874
 21
5.484937
 31
0.0
  0
SPLINE
  5
77
100
AcDbEntity
  8
BODEN-3_8
 62
     7
100
AcDbSpline
210
0.0
220
0.0
230
1.0
 70
     8
 71
     3
 72
     8
 73
     4
 74
     0
 42
0.00000001
 43
0.00000001
 40
0.0
 40
0.0
 40
0.0
 40
0.0
 40
1.0
 40
1.0
 40
1.0
 40
1.0
 10
-5.78198988172743
 20
-11.287855360243055
 30
0.0
 10
-1.4449591742621526
 20
-12.791984049479165
 30
0.0
 10
3.1428744845920136
 20
-13.441729058159721
 30
0.0
 10
7.726918538411458
 20
-13.200572374131943
 30
0.0
  0
SPLINE
  5
76
100
AcDbEntity
  8
BODEN-3_8
 62
     7
100
AcDbSpline
210
0.0
220
0.0
230
1.0
 70
     8
 71
     3
 72
     8
 73
     4
 74
     0
 42
0.00000001
 43
0.00000001
 40
0.0
 40
0.0
 40
0.0
 40
0.0
 40
1.0
 40
1.0
 40
1.0
 40
1.0
 10
-5.78198988172743
 20
-11.287855360243055
 30
0.0
 10
-8.1845994737413186
 20
-11.821845160590277
 30
0.0
 10
-10.570155843098958
 20
-12.428870985243055
 30
0.0
 10
-12.935730658637151
 20
-13.108932834201388
 30
0.0
  0
SPLINE
  5
75
100
AcDbEntity
  8
BODEN-3_8
 62
     7
100
AcDbSpline
210
0.0
220
0.0
230
1.0
 70
     8
 71
     3
 72
     8
 73
     4
 74
     0
 42
0.00000001
 43
0.00000001
 40
0.0
 40
0.0
 40
0.0
 40
0.0
 40
1.0
 40
1.0
 40
1.0
 40
1.0
 10
9.2007303873697914
 20
62.9668714735243
 30
0.0
 10
8.5785461425781246
 20
63.570796712239577
 30
0.0
 10
7.7041809082031243
 20
63.839514160156241
 30
0.0
 10
6.8497972276475689
 20
63.68896348741319
 30
0.0
  0
LINE
  5
74
100
AcDbEntity
  8
BODEN-3_8
 62
     7
100
AcDbLine
 10
19.383055
 20
3.658347
 30
0.0
 11
-25.372181
 21
3.658347
 31
0.0
  0
SPLINE
  5
73
100
AcDbEntity
  8
BODEN-3_8
 62
     7
100
AcDbSpline
210
0.0
220
0.0
230
1.0
 70
     8
 71
     3
 72
     8
 73
     4
 74
     0
 42
0.00000001
 43
0.00000001
 40
0.0
 40
0.0
 40
0.0
 40
0.0
 40
1.0
 40
1.0
 40
1.0
 40
1.0
 10
9.5645324707031243
 20
61.81724310980902
 30
0.0
 10
9.5645324707031243
 20
62.228932020399299
 30
0.0
 10
9.437408447265625
 20
62.630285644531241
 30
0.0
 10
9.2007303873697914
 20
62.9668714735243
 30
0.0
  0
SPLINE
  5
72
100
AcDbEntity
  8
BODEN-3_8
 62
     7
100
AcDbSpline
210
0.0
220
0.0
230
1.0
 70
     8
 71
     3
 72
     8
 73
     4
 74
     0
 42
0.00000001
 43
0.00000001
 40
0.0
 40
0.0
 40
0.0
 40
0.0
 40
1.0
 40
1.0
 40
1.0
 40
1.0
 10
-15.553314208984373
 20
-11.209307183159721
 30
0.0
 10
-15.553314208984373
 20
-11.620651584201388
 30
0.0
 10
-15.426190185546874
 20
-12.022349717881943
 30
0.0
 10
-15.18951212565104
 20
-12.358591037326388
 30
0.0
  0
SPLINE
  5
71
100
AcDbEntity
  8
BODEN-3_8
 62
     7
100
AcDbSpline
210
0.0
220
0.0
230
1.0
 70
     8
 71
     3
 72
     8
 73
     4
 74
     0
 42
0.00000001
 43
0.00000001
 40
0.0
 40
0.0
 40
0.0
 40
0.0
 40
1.0
 40
1.0
 40
1.0
 40
1.0
 10
-15.18951212565104
 20
-12.358591037326388
 30
0.0
 10
-14.567327880859374
 20
-12.962860785590276
 30
0.0
 10
-13.692962646484373
 20
-13.231578233506943
 30
0.0
 10
-12.838923475477429
 20
-13.080683051215276
 30
0.0
  0
SPLINE
  5
70
100
AcDbEntity
  8
BODEN-3_8
 62
     7
100
AcDbSpline
210
0.0
220
0.0
230
1.0
 70
     8
 71
     3
 72
     8
 73
     4
 74
     0
 42
0.00000001
 43
0.00000001
 40
0.0
 40
0.0
 40
0.0
 40
0.0
 40
1.0
 40
1.0
 40
1.0
 40
1.0
 10
7.5663770887586796
 20
-10.352856445312499
 30
0.0
 10
3.0949876573350692
 20
-10.040730794270832
 30
0.0
 10
-1.3977613661024304
 20
-10.355612521701389
 30
0.0
 10
-5.78198988172743
 20
-11.287855360243055
 30
0.0
  0
SPLINE
  5
6F
100
AcDbEntity
  8
BODEN-3_8
 62
     7
100
AcDbSpline
210
0.0
220
0.0
230
1.0
 70
     8
 71
     3
 72
     8
 73
     4
 74
     0
 42
0.00000001
 43
0.00000001
 40
0.0
 40
0.0
 40
0.0
 40
0.0
 40
1.0
 40
1.0
 40
1.0
 40
1.0
 10
7.7651590983072909
 20
-9.2207980685763875
 30
0.0
 10
5.2919250488281246
 20
-9.0926405164930539
 30
0.0
 10
2.812489827473958
 20
-9.2814317491319436
 30
0.0
 10
0.3871426052517361
 20
-9.7823486328124982
 30
0.0
  0
SPLINE
  5
6E
100
AcDbEntity
  8
BODEN-3_8
 62
     7
100
AcDbSpline
210
0.0
220
0.0
230
1.0
 70
     8
 71
     3
 72
     8
 73
     4
 74
     0
 42
0.00000001
 43
0.00000001
 40
0.0
 40
0.0
 40
0.0
 40
0.0
 40
1.0
 40
1.0
 40
1.0
 40
1.0
 10
-5.78198988172743
 20
-11.287855360243055
 30
0.0
 10
-1.3950052897135414
 20
-12.202872721354165
 30
0.0
 10
3.1029113769531249
 20
-12.46469997829861
 30
0.0
 10
7.5663770887586796
 20
-12.06506890190972
 30
0.0
  0
SPLINE
  5
6D
100
AcDbEntity
  8
BODEN-3_8
 62
     7
100
AcDbSpline
210
0.0
220
0.0
230
1.0
 70
     8
 71
     3
 72
     8
 73
     4
 74
     0
 42
0.00000001
 43
0.00000001
 40
0.0
 40
0.0
 40
0.0
 40
0.0
 40
1.0
 40
1.0
 40
1.0
 40
1.0
 10
0.8177795410156249
 20
-9.6969102647569443
 30
0.0
 10
-1.4039625379774305
 20
-10.131681315104165
 30
0.0
 10
-3.6060675726996525
 20
-10.662226019965276
 30
0.0
 10
-5.78198988172743
 20
-11.287855360243055
 30
0.0
  0
POLYLINE
  5
67
100
AcDbEntity
  8
BODEN-3_8
 62
     7
100
AcDb2dPolyline
 66
     1
 10
0.0
 20
0.0
 30
0.0
 70
     1
  0
VERTEX
  5
68
100
AcDbEntity
  8
BODEN-3_8
 62
     7
100
AcDbVertex
100
AcDb2dVertex
 10
-22.953035
 20
11.879034
 30
0.0
  0
VERTEX
  5
69
100
AcDbEntity
  8
BODEN-3_8
 62
     7
100
AcDbVertex
100
AcDb2dVertex
 10
-18.568979
 20
11.879034
 30
0.0
  0
VERTEX
  5
6A
100
AcDbEntity
  8
BODEN-3_8
 62
     7
100
AcDbVertex
100
AcDb2dVertex
 10
-18.568979
 20
12.335164
 30
0.0
  0
VERTEX
  5
6B
100
AcDbEntity
  8
BODEN-3_8
 62
     7
100
AcDbVertex
100
AcDb2dVertex
 10
-22.953035
 20
12.335164
 30
0.0
  0
SEQEND
  5
6C
100
AcDbEntity
  8
BODEN-3_8
 62
     7
  0
SPLINE
  5
66
100
AcDbEntity
  8
BODEN-3_8
 62
     7
100
AcDbSpline
210
0.0
220
0.0
230
1.0
 70
     8
 71
     3
 72
    11
 73
     7
 74
     0
 42
0.00000001
 43
0.00000001
 40
0.0
 40
0.0
 40
0.0
 40
0.0
 40
1.0
 40
1.0
 40
1.0
 40
2.0
 40
2.0
 40
2.0
 40
2.0
 10
7.5663770887586796
 20
-12.06506890190972
 30
0.0
 10
8.0393886990017354
 20
-12.06506890190972
 30
0.0
 10
8.4228278266059018
 20
-11.681974283854165
 30
0.0
 10
8.4228278266059018
 20
-11.209307183159721
 30
0.0
 10
8.4228278266059018
 20
-10.735951063368054
 30
0.0
 10
8.0393886990017354
 20
-10.352856445312499
 30
0.0
 10
7.5663770887586796
 20
-10.352856445312499
 30
0.0
  0
SPLINE
  5
65
100
AcDbEntity
  8
BODEN-3_8
 62
     7
100
AcDbSpline
210
0.0
220
0.0
230
1.0
 70
     8
 71
     3
 72
    11
 73
     7
 74
     0
 42
0.00000001
 43
0.00000001
 40
0.0
 40
0.0
 40
0.0
 40
0.0
 40
1.0
 40
1.0
 40
1.0
 40
2.0
 40
2.0
 40
2.0
 40
2.0
 10
7.608751763237847
 20
-13.206773546006943
 30
0.0
 10
8.7118713378906243
 20
-13.183346896701387
 30
0.0
 10
9.5872701009114571
 20
-12.270396592881943
 30
0.0
 10
9.5638434516059014
 20
-11.166587999131943
 30
0.0
 10
9.5411058213975686
 20
-10.077937825520833
 30
0.0
 10
8.6495151095920129
 20
-9.2077067057291657
 30
0.0
 10
7.5601759168836802
 20
-9.2111518012152764
 30
0.0
  0
LINE
  5
64
100
AcDbEntity
  8
BODEN-3_8
 62
     7
100
AcDbLine
 10
19.383055
 20
10.051755
 30
0.0
 11
-25.372181
 21
10.051755
 31
0.0
  0
LINE
  5
63
100
AcDbEntity
  8
BODEN-3_8
 62
     7
100
AcDbLine
 10
-25.372181
 20
11.879034
 30
0.0
 11
19.383055
 21
11.879034
 31
0.0
  0
LINE
  5
62
100
AcDbEntity
  8
BODEN-3_8
 62
     7
100
AcDbLine
 10
19.839874
 20
10.051755
 30
0.0
 11
-25.828828
 21
10.051755
 31
0.0
  0
LINE
  5
61
100
AcDbEntity
  8
BODEN-3_8
 62
     7
100
AcDbLine
 10
19.383055
 20
11.879034
 30
0.0
 11
19.383055
 21
10.051755
 31
0.0
  0
LINE
  5
60
100
AcDbEntity
  8
BODEN-3_8
 62
     7
100
AcDbLine
 10
-25.372181
 20
10.051755
 30
0.0
 11
-25.372181
 21
11.879034
 31
0.0
  0
LINE
  5
5F
100
AcDbEntity
  8
BODEN-3_8
 62
     7
100
AcDbLine
 10
-25.828828
 20
10.051755
 30
0.0
 11
-25.828828
 21
5.484937
 31
0.0
  0
LINE
  5
5E
100
AcDbEntity
  8
BODEN-3_8
 62
     7
100
AcDbLine
 10
19.839874
 20
5.484937
 30
0.0
 11
19.839874
 21
10.051755
 31
0.0
  0
LINE
  5
5D
100
AcDbEntity
  8
BODEN-3_8
 62
     7
100
AcDbLine
 10
-25.372181
 20
5.484937
 30
0.0
 11
19.383055
 21
5.484937
 31
0.0
  0
LINE
  5
5C
100
AcDbEntity
  8
BODEN-3_8
 62
     7
100
AcDbLine
 10
-25.372181
 20
3.658347
 30
0.0
 11
-25.372181
 21
5.484937
 31
0.0
  0
LINE
  5
5B
100
AcDbEntity
  8
BODEN-3_8
 62
     7
100
AcDbLine
 10
19.383055
 20
5.484937
 30
0.0
 11
19.383055
 21
3.658347
 31
0.0
  0
POLYLINE
  5
55
100
AcDbEntity
  8
BODEN-3_8
 62
     7
100
AcDb2dPolyline
 66
     1
 10
0.0
 20
0.0
 30
0.0
 70
     1
  0
VERTEX
  5
56
100
AcDbEntity
  8
BODEN-3_8
 62
     7
100
AcDbVertex
100
AcDb2dVertex
 10
16.964253
 20
11.879034
 30
0.0
  0
VERTEX
  5
57
100
AcDbEntity
  8
BODEN-3_8
 62
     7
100
AcDbVertex
100
AcDb2dVertex
 10
12.580025
 20
11.879034
 30
0.0
  0
VERTEX
  5
58
100
AcDbEntity
  8
BODEN-3_8
 62
     7
100
AcDbVertex
100
AcDb2dVertex
 10
12.580025
 20
12.335164
 30
0.0
  0
VERTEX
  5
59
100
AcDbEntity
  8
BODEN-3_8
 62
     7
100
AcDbVertex
100
AcDb2dVertex
 10
16.964253
 20
12.335164
 30
0.0
  0
SEQEND
  5
5A
100
AcDbEntity
  8
BODEN-3_8
 62
     7
  0
LINE
  5
54
100
AcDbEntity
  8
BODEN-3_8
 62
     7
100
AcDbLine
 10
19.839874
 20
55.84362
 30
0.0
 11
19.839874
 21
-0.100252
 31
0.0
  0
LINE
  5
53
100
AcDbEntity
  8
BODEN-3_8
 62
     7
100
AcDbLine
 10
19.383055
 20
10.051755
 30
0.0
 11
19.383055
 21
11.879034
 31
0.0
  0
LINE
  5
52
100
AcDbEntity
  8
BODEN-3_8
 62
     7
100
AcDbLine
 10
19.839874
 20
10.051755
 30
0.0
 11
19.839874
 21
5.484937
 31
0.0
  0
LINE
  5
51
100
AcDbEntity
  8
BODEN-3_8
 62
     7
100
AcDbLine
 10
19.383055
 20
3.658347
 30
0.0
 11
19.383055
 21
5.484937
 31
0.0
  0
MTEXT
  5
50
100
AcDbEntity
  8
BODEN-3_8
 62
     7
100
AcDbMText
 10
15.972755
 20
-53.807946
 30
0.0
 40
5.774636
 41
0.0
 71
     1
 72
     2
  1
\fArial|b0|i0;\H5.7746;\C7;\U+0032\U+0030
  7
STD
210
0.0
220
0.0
230
1.0
 73
     1
 44
1.0
  0
MTEXT
  5
4F
100
AcDbEntity
  8
BODEN-3_8
 62
     7
100
AcDbMText
 10
15.972755
 20
-43.930168
 30
0.0
 40
5.774636
 41
0.0
 71
     1
 72
     2
  1
\fArial|b0|i0;\H5.7746;\C7;\U+0053\U+0074\U+0061\U+006E\U+0064\U+0061\U+0072\U+0064
  7
STD
210
0.0
220
0.0
230
1.0
 73
     1
 44
1.0
  0
MTEXT
  5
4E
100
AcDbEntity
  8
BODEN-3_8
 62
     7
100
AcDbMText
 10
15.972755
 20
-34.05239
 30
0.0
 40
5.774636
 41
0.0
 71
     1
 72
     2
  1
\fArial|b0|i0;\H5.7746;\C7;\U+0046\U+0048\U+0052\U+004B\U+002D
  7
STD
210
0.0
220
0.0
230
1.0
 73
     1
 44
1.0
  0
LINE
  5
4D
100
AcDbEntity
  8
BODEN-3_8
 62
     7
100
AcDbLine
 10
-25.828828
 20
50.7106
 30
0.0
 11
-25.828828
 21
-0.100252
 31
0.0
  0
LINE
  5
4C
100
AcDbEntity
  8
BODEN-3_8
 62
     7
100
AcDbLine
 10
-25.372181
 20
11.879034
 30
0.0
 11
-25.372181
 21
10.051755
 31
0.0
  0
LINE
  5
4B
100
AcDbEntity
  8
BODEN-3_8
 62
     7
100
AcDbLine
 10
-25.828828
 20
5.484937
 30
0.0
 11
-25.828828
 21
10.051755
 31
0.0
  0
LINE
  5
4A
100
AcDbEntity
  8
BODEN-3_8
 62
     7
100
AcDbLine
 10
-25.372181
 20
5.484937
 30
0.0
 11
-25.372181
 21
3.658347
 31
0.0
  0
LINE
  5
49
100
AcDbEntity
  8
BODEN-3_8
 62
     7
100
AcDbLine
 10
-25.828828
 20
55.84362
 30
0.0
 11
-25.828828
 21
-0.100252
 31
0.0
  0
LINE
  5
48
100
AcDbEntity
  8
BODEN-3_8
 62
     7
100
AcDbLine
 10
-25.372181
 20
10.051755
 30
0.0
 11
-25.372181
 21
11.879034
 31
0.0
  0
LINE
  5
47
100
AcDbEntity
  8
BODEN-3_8
 62
     7
100
AcDbLine
 10
-25.828828
 20
10.051755
 30
0.0
 11
-25.828828
 21
5.484937
 31
0.0
  0
LINE
  5
46
100
AcDbEntity
  8
BODEN-3_8
 62
     7
100
AcDbLine
 10
-25.372181
 20
3.658347
 30
0.0
 11
-25.372181
 21
5.484937
 31
0.0
  0
SPLINE
  5
45
100
AcDbEntity
  8
BODEN-3_8
 62
     7
100
AcDbSpline
210
0.0
220
0.0
230
1.0
 70
     8
 71
     3
 72
     8
 73
     4
 74
     0
 42
0.00000001
 43
0.00000001
 40
0.0
 40
0.0
 40
0.0
 40
0.0
 40
1.0
 40
1.0
 40
1.0
 40
1.0
 10
-21.731231689453121
 20
13.95918240017361
 30
0.0
 10
-21.126100667317708
 20
14.172778320312499
 30
0.0
 10
-20.465848117404512
 20
14.172778320312499
 30
0.0
 10
-19.860717095269095
 20
13.95918240017361
 30
0.0
  0
LINE
  5
44
100
AcDbEntity
  8
BODEN-3_8
 62
     7
100
AcDbLine
 10
-22.198903
 20
14.119724
 30
0.0
 11
-19.392873
 21
14.119724
 31
0.0
  0
LINE
  5
43
100
AcDbEntity
  8
BODEN-3_8
 62
     7
100
AcDbLine
 10
-22.666575
 20
12.514309
 30
0.0
 11
-22.666575
 21
13.959182
 31
0.0
  0
LINE
  5
42
100
AcDbEntity
  8
BODEN-3_8
 62
     7
100
AcDbLine
 10
-21.731232
 20
12.514309
 30
0.0
 11
-21.731232
 21
13.959182
 31
0.0
  0
SPLINE
  5
41
100
AcDbEntity
  8
BODEN-3_8
 62
     7
100
AcDbSpline
210
0.0
220
0.0
230
1.0
 70
     8
 71
     3
 72
     8
 73
     4
 74
     0
 42
0.00000001
 43
0.00000001
 40
0.0
 40
0.0
 40
0.0
 40
0.0
 40
1.0
 40
1.0
 40
1.0
 40
1.0
 10
-22.666575113932289
 20
13.95918240017361
 30
0.0
 10
-22.391484239366317
 20
14.172778320312499
 30
0.0
 10
-22.006322564019094
 20
14.172778320312499
 30
0.0
 10
-21.731231689453121
 20
13.95918240017361
 30
0.0
  0
SPLINE
  5
40
100
AcDbEntity
  8
BODEN-3_8
 62
     7
100
AcDbSpline
210
0.0
220
0.0
230
1.0
 70
     8
 71
     3
 72
     8
 73
     4
 74
     0
 42
0.00000001
 43
0.00000001
 40
0.0
 40
0.0
 40
0.0
 40
0.0
 40
1.0
 40
1.0
 40
1.0
 40
1.0
 10
-19.860717095269095
 20
13.95918240017361
 30
0.0
 10
-19.585453965928817
 20
14.172778320312499
 30
0.0
 10
-19.200292290581597
 20
14.172778320312499
 30
0.0
 10
-18.925373670789927
 20
13.95918240017361
 30
0.0
  0
LINE
  5
3F
100
AcDbEntity
  8
BODEN-3_8
 62
     7
100
AcDbLine
 10
-19.860717
 20
12.514309
 30
0.0
 11
-19.860717
 21
13.959182
 31
0.0
  0
LINE
  5
3E
100
AcDbEntity
  8
BODEN-3_8
 62
     7
100
AcDbLine
 10
-18.925374
 20
12.514309
 30
0.0
 11
-18.925374
 21
13.959182
 31
0.0
  0
SPLINE
  5
3D
100
AcDbEntity
  8
BODEN-3_8
 62
     7
100
AcDbSpline
210
0.0
220
0.0
230
1.0
 70
     8
 71
     3
 72
     8
 73
     4
 74
     0
 42
0.00000001
 43
0.00000001
 40
0.0
 40
0.0
 40
0.0
 40
0.0
 40
1.0
 40
1.0
 40
1.0
 40
1.0
 10
15.764326307508679
 20
12.700344509548611
 30
0.0
 10
15.159023030598958
 20
12.486748589409721
 30
0.0
 10
14.498598225911458
 20
12.486748589409721
 30
0.0
 10
13.893639458550346
 20
12.700344509548611
 30
0.0
  0
SPLINE
  5
3C
100
AcDbEntity
  8
BODEN-3_8
 62
     7
100
AcDbSpline
210
0.0
220
0.0
230
1.0
 70
     8
 71
     3
 72
     8
 73
     4
 74
     0
 42
0.00000001
 43
0.00000001
 40
0.0
 40
0.0
 40
0.0
 40
0.0
 40
1.0
 40
1.0
 40
1.0
 40
1.0
 10
13.893639458550346
 20
14.14521755642361
 30
0.0
 10
14.498598225911458
 20
14.35950249565972
 30
0.0
 10
15.159023030598958
 20
14.35950249565972
 30
0.0
 10
15.764326307508679
 20
14.14521755642361
 30
0.0
  0
LINE
  5
3B
100
AcDbEntity
  8
BODEN-3_8
 62
     7
100
AcDbLine
 10
13.425795
 20
14.305759
 30
0.0
 11
16.231826
 21
14.305759
 31
0.0
  0
LINE
  5
3A
100
AcDbEntity
  8
BODEN-3_8
 62
     7
100
AcDbLine
 10
12.958296
 20
12.700345
 30
0.0
 11
12.958296
 21
14.145218
 31
0.0
  0
LINE
  5
39
100
AcDbEntity
  8
BODEN-3_8
 62
     7
100
AcDbLine
 10
13.893639
 20
12.700345
 30
0.0
 11
13.893639
 21
14.145218
 31
0.0
  0
SPLINE
  5
38
100
AcDbEntity
  8
BODEN-3_8
 62
     7
100
AcDbSpline
210
0.0
220
0.0
230
1.0
 70
     8
 71
     3
 72
     8
 73
     4
 74
     0
 42
0.00000001
 43
0.00000001
 40
0.0
 40
0.0
 40
0.0
 40
0.0
 40
1.0
 40
1.0
 40
1.0
 40
1.0
 10
12.958296034071179
 20
14.14521755642361
 30
0.0
 10
13.233214653862847
 20
14.35950249565972
 30
0.0
 10
13.61872083875868
 20
14.35950249565972
 30
0.0
 10
13.893639458550346
 20
14.14521755642361
 30
0.0
  0
SPLINE
  5
37
100
AcDbEntity
  8
BODEN-3_8
 62
     7
100
AcDbSpline
210
0.0
220
0.0
230
1.0
 70
     8
 71
     3
 72
     8
 73
     4
 74
     0
 42
0.00000001
 43
0.00000001
 40
0.0
 40
0.0
 40
0.0
 40
0.0
 40
1.0
 40
1.0
 40
1.0
 40
1.0
 10
13.893639458550346
 20
12.700344509548611
 30
0.0
 10
13.61872083875868
 20
12.486748589409721
 30
0.0
 10
13.233214653862847
 20
12.486748589409721
 30
0.0
 10
12.958296034071179
 20
12.700344509548611
 30
0.0
  0
SPLINE
  5
36
100
AcDbEntity
  8
BODEN-3_8
 62
     7
100
AcDbSpline
210
0.0
220
0.0
230
1.0
 70
     8
 71
     3
 72
     8
 73
     4
 74
     0
 42
0.00000001
 43
0.00000001
 40
0.0
 40
0.0
 40
0.0
 40
0.0
 40
1.0
 40
1.0
 40
1.0
 40
1.0
 10
16.699669731987846
 20
12.700344509548611
 30
0.0
 10
16.424406602647569
 20
12.486748589409721
 30
0.0
 10
16.039244927300345
 20
12.486748589409721
 30
0.0
 10
15.764326307508679
 20
12.700344509548611
 30
0.0
  0
SPLINE
  5
35
100
AcDbEntity
  8
BODEN-3_8
 62
     7
100
AcDbSpline
210
0.0
220
0.0
230
1.0
 70
     8
 71
     3
 72
     8
 73
     4
 74
     0
 42
0.00000001
 43
0.00000001
 40
0.0
 40
0.0
 40
0.0
 40
0.0
 40
1.0
 40
1.0
 40
1.0
 40
1.0
 10
15.764326307508679
 20
14.14521755642361
 30
0.0
 10
16.039244927300345
 20
14.35950249565972
 30
0.0
 10
16.424406602647569
 20
14.35950249565972
 30
0.0
 10
16.699669731987846
 20
14.14521755642361
 30
0.0
  0
LINE
  5
34
100
AcDbEntity
  8
BODEN-3_8
 62
     7
100
AcDbLine
 10
15.764326
 20
12.700345
 30
0.0
 11
15.764326
 21
14.145218
 31
0.0
  0
LINE
  5
33
100
AcDbEntity
  8
BODEN-3_8
 62
     7
100
AcDbLine
 10
16.69967
 20
12.700345
 30
0.0
 11
16.69967
 21
14.145218
 31
0.0
  0
ENDBLK
  5
18C
100
AcDbEntity
  8
BODEN-3_8
100
AcDbBlockEnd
  0
ENDSEC
  0
SECTION
  2
ENTITIES
  0
INSERT
  5
31
100
AcDbEntity
  8
BODEN-3_8
 62
     7
100
AcDbBlockReference
  2
AI9-BLK1
 10
101.275558
 20
128.185457
 30
0.0
  0
POLYLINE
  5
29
100
AcDbEntity
  8
RAHMEN
 62
     7
100
AcDb2dPolyline
 66
     1
 10
0.0
 20
0.0
 30
0.0
 70
     1
  0
VERTEX
  5
2A
100
AcDbEntity
  8
RAHMEN
 62
     7
100
AcDbVertex
100
AcDb2dVertex
 10
14.676624
 20
221.977493
 30
0.0
  0
VERTEX
  5
2B
100
AcDbEntity
  8
RAHMEN
 62
     7
100
AcDbVertex
100
AcDb2dVertex
 10
14.676624
 20
49.146699
 30
0.0
  0
VERTEX
  5
2C
100
AcDbEntity
  8
RAHMEN
 62
     7
100
AcDbVertex
100
AcDb2dVertex
 10
180.980512
 20
49.146699
 30
0.0
  0
VERTEX
  5
2D
100
AcDbEntity
  8
RAHMEN
 62
     7
100
AcDbVertex
100
AcDb2dVertex
 10
180.980512
 20
221.977493
 30
0.0
  0
SEQEND
  5
2E
100
AcDbEntity
  8
RAHMEN
 62
     7
  0
ENDSEC
  0
SECTION
  2
OBJECTS
  0
DICTIONARY
  5
19
100
AcDbDictionary
280
     0
281
     1
  3
ACAD_GROUP
350
1A
  3
ACAD_MLINESTYLE
350
1B
  3
ACAD_LAYOUT
350
1E
  3
ACAD_PLOTSETTINGS
350
22
  3
ACAD_PLOTSTYLENAME
350
1F
  3
ACAD_WIPEOUT_VARS
350
23
  0
DICTIONARY
  5
1A
102
{ACAD_REACTORS
330
19
102
}
100
AcDbDictionary
280
     0
281
     1
  0
DICTIONARY
  5
1B
102
{ACAD_REACTORS
330
19
102
}
100
AcDbDictionary
280
     0
281
     1
  3
Standard
350
1C
  0
MLINESTYLE
  5
1C
102
{ACAD_REACTORS
330
1B
102
}
100
AcDbMlineStyle
  2
Standard
 70
     0
  3

 62
     0
 51
90.0
 52
90.0
 71
     2
 49
0.5
 62
   256
  6
ByLayer
 49
-0.5
 62
   256
  6
ByLayer
  0
ACDBDICTIONARYWDFLT
  5
1F
102
{ACAD_REACTORS
330
19
102
}
100
AcDbDictionary
281
     1
  3
Normal
350
1D
100
AcDbDictionaryWithDefault
340
1D
  0
ACDBPLACEHOLDER
  5
1D
102
{ACAD_REACTORS
330
1F
102
}
  0
LAYOUT
  5
20
102
{ACAD_REACTORS
330
1E
102
}
100
AcDbPlotSettings
  1

  2

  4

  6

 40
0.0
 41
0.0
 42
0.0
 43
0.0
 44
0.0
 45
0.0
 46
0.0
 47
0.0
 48
0.0
 49
0.0
140
0.0
141
0.0
142
1.0
143
1.0
 70
  1024
 72
     0
 73
     0
 74
     0
  7

 75
     0
147
1.0
148
0.0
149
0.0
100
AcDbLayout
  1
Model
 70
     0
 71
     0
 10
0.0
 20
0.0
 11
0.0
 21
0.0
 12
0.0
 22
0.0
 32
0.0
 14
0.0
 24
0.0
 34
0.0
 15
0.0
 25
0.0
 35
0.0
146
0.0
 13
0.0
 23
0.0
 33
0.0
 16
0.0
 26
0.0
 36
0.0
 17
0.0
 27
0.0
 37
0.0
 76
     0
330
A
331
0
345
0
346
0
  0
LAYOUT
  5
21
102
{ACAD_REACTORS
330
1E
102
}
100
AcDbPlotSettings
  1

  2

  4

  6

 40
0.0
 41
0.0
 42
0.0
 43
0.0
 44
0.0
 45
0.0
 46
0.0
 47
0.0
 48
0.0
 49
0.0
140
0.0
141
0.0
142
1.0
143
1.0
 70
     0
 72
     0
 73
     0
 74
     0
  7

 75
     0
147
1.0
148
0.0
149
0.0
100
AcDbLayout
  1
Layout1
 70
     0
 71
     0
 10
0.0
 20
0.0
 11
0.0
 21
0.0
 12
0.0
 22
0.0
 32
0.0
 14
0.0
 24
0.0
 34
0.0
 15
0.0
 25
0.0
 35
0.0
146
0.0
 13
0.0
 23
0.0
 33
0.0
 16
0.0
 26
0.0
 36
0.0
 17
0.0
 27
0.0
 37
0.0
 76
     0
330
B
331
0
345
0
346
0
  0
DICTIONARY
  5
1E
102
{ACAD_REACTORS
330
19
102
}
100
AcDbDictionary
280
     0
281
     1
  3
Layout1
350
21
  3
Model
350
20
  0
DICTIONARY
  5
22
102
{ACAD_REACTORS
330
19
102
}
100
AcDbDictionary
280
     0
281
     1
  0
WIPEOUTVARIABLES
  5
23
100
AcDbWipeoutVariables
 70
     1
  0
ENDSEC
  0
EOF
